Rage Against The Machine - Wake Up Chords & Tabs

 

Wake Up Chords & Tabs

Rage Against The Machine Chords & Tabs

Version: 3 Type: Tab 0 ratings
1 star 2 stars 3 stars 4 stars 5 stars
comments

Wake Up Tab

   
Song: Wake Up
Band: Rage Against The Machine
Album: Self Titled/The Matrix Soundtrack

Tuning Drop D 
E
B
G
D
A
D


Hey guys, this is my first tab of this amazing song and I've tabbed almost every inch of it.

Intro
Fade up volume after pluck
---------------------
---------------------
---------------------
---------------------
----5----------------
---------------------
Riff 1

---------------------
---------------------
--7-7-7-7------------
--7-7-7-7------------
--5-5-5-5------------
--------------------- X8 (Listen to song)

---------------------
---------------------
---------6-----------(Bend up and down during the above riff)
---------------------
---------------------
---------------------

Interlude
---------------------
---------------------
---------------------
---------------------
---------------------
----0----------------(Let ring while bass does this)

Bass
---------------------
---------------------
---------------------
---------------------
------3--2-3---------
-0-0-0--0----0-3-5-0-3 X3

Chorus
--------------------
--------------------
--------------------
--------------------
------3--2-3---------
-0-0-0--0----0-3-5-0-3

Verse
[ Tab from: http://www.guitartabs.cc/tabs/r/rage_against_the_machine/wake_up_tab_ver_3.html ]
----------------------
----------------------
----------------------
----2---4-------------
-2-4--4---2-2-3------
----------------------

Solo (Used with tremelo)

------------------------------------------------------
------------------------------------------------------
------------------------------------------------------
---7-7-7-7-7-9-10-12-12-12-9-10--5-5-5-5-5-5-12-10-9-7
------------------------------------------------------
------------------------------------------------------ X2

Interlude2

----------------------
----------------------
----------------------
----------------------
----------------------
-0-2-0-2-0-2-0-2-0-0-- Then slowly speed up

Interlude3

----3-----------------
----0-----------------
----0-----------------
----0-----------------
----0-----------------
-0--------------------

End
----------------------
----------------------
----------------------
-2--------------------
-2--------------------
-2--------------------

Song structure

Intro
Riff 1 X8
Bass solo X3
Chorus X6
Verse (Listen to the song)
Chorus X6
Verse
Solo X2
Interlude 2
Muted riff 1
Riff 1
Interlude 3
Chorus
Distoirtion (Play whatever you want)
End

Hope you can get this one right. It's one of their best.

Any questions, comments or problems email- hj_blade@hotmail.com
Comments