Rage Against The Machine - Wake Up Chords & Tabs

 

Wake Up Chords & Tabs

Rage Against The Machine Chords & Tabs

Version: 3 Type: Bass Tab 0 ratings
1 star 2 stars 3 stars 4 stars 5 stars
comments

Wake Up Bass Tab

   
Wake Up - Rage Against the Machine

By: Jon Craven (i_apathy@hotmail.com)
Write me if you have questions, comments, corrections, want .midi samples of
each riff, or have a tab request.

(4/4)(171 bpm)
Dropped-D tuning

Notes:
  -There may be subtle variations at the end of the second chorus, the second
interlude and the outro chorus similar to the last measure of the third intro.
  -Some sort of distortion is used in the outro chorus.

R - quarter rest
r - eighth rest
h - hammer-on
* - note held for an eighth beat
|-R-| - rest for one measure
/ - slide up
\ - slide down

Intro (0:00)

Intro 2 (interlude 1 pts. 1-3): (x8)(0:02)
|----------------|----------------|
|----------------|----------------|
|5-5-5-5-R---5-5-|5-5-5-r-5-5-5-5-|
|----------------|----------------|

Intro 3: (0:26)
|----------------|----------------|----------------|----------------|
|----------------|----------------|----------------|----------------|
|--------3-----2-|3---------------|--------3-----2-|3---------------|
|0---0-0-----0---|--0-3-5-3-0-2---|0---0-0-----0---|--0-3-5-3-0-2---|

|----------------|----------------|----------------|----------------|
|----------------|----------------|----------------|----------------|
|--------3-----2-|3---------------|--------3-----2-|3---------------|
|0---0-0-----0---|--0-3-5-3-0-2---|0---0-0-----0---|--0-3-5-3-0-2-0-|

Choruses: (0:38)
|----------------|----------------|----------------|----------------|
|----------------|----------------|----------------|----------------|
|--------3-----2-|3---------------|--------3-----2-|3---------------|
|0---0-0-----0---|--0-3-5-3-0-2---|0---0-0-----0---|--0-3-5-3-0-2---|

|----------------|----------------|----------------|-----------------|
|----------------|----------------|----------------|-----------------|
|--------3-----2-|3---------------|--------3-------|5h7-r-7h8-r-8h10-|
|0---0-0-----0---|--0-3-5-3-0-2---|0---0-0-----0---|-----------------|

|----------------|----------------|----------------|----------------|
|----------------|----------------|----------------|----------------|
|--------3-----2-|3---------------|--------3-----2-|3---------------|
|0---0-0-----0---|--0-3-5-3-0-2---|0---0-0-----0---|--0-3-5-3-0-2---|

|----------------|----------------|----------------|----------------|
|----------------|----------------|----------------|----------------|
|--------3-----2-|3---------------|--------3-----2-|3---------------|
|0---0-0-----0---|--0-3-5-3-0-2---|0---0-0-----0---|--0-3-5-3-0-2---|

Verse 1: (1:02)
|----------------|----------------|----------------|----------------|
|--------3-------|5---------------|--------3-------|5---------------|
|3-5-R-----5-R---|--3-r-3-*-*-4---|3-5-R-----5-R---|--3-r-3-*-*-4---|
|----------------|----------------|----------------|----------------|

|----------------|----------------|----------------|----------------|
|--------3-------|5---------------|--------3-------|5---------------|
|3-5-R-----5-R---|--3-r-3-*-*-4---|3-5-R-----5-R---|--3-r-3-*-*-4---|
|----------------|----------------|----------------|----------------|

|----------------|----------------|----------------|----------------|
|--------3-------|5---------------|--------3-------|5---------------|
|3-5-R-----5-R---|--3-r-3-*-*-4---|3-5-R-----5-R---|--3-r-3-*-*-4---|
|----------------|----------------|----------------|----------------|

|----------------|----------------|----------------|---|
|--------3-------|5---------------|----------------|---|
|3-5-R-----5-R---|--3-r-3-*-*-4---|3-5-R---R---R---|-R-|
|----------------|----------------|----------------|---|

|----------------|----------------|----------------|----------------|
|--------3-------|5---------------|--------3-------|5---------------|
|3-5-R-----5-R---|--3-r-3-*-*-4---|3-5-R-----5-R---|--3-r-3-*-*-4---|
|----------------|----------------|----------------|----------------|

|----------------|----------------|----------------|----------------|
|--------3-------|5---------------|----------3---5-|3-6-6-5-3-5-3---|
|3-5-R-----5-R---|--3-r-3-*-*-4---|5-5-5-5-5---5---|--------------5-|
|----------------|----------------|----------------|----------------|

|----------------|----------------|----------------|----------------|
|--------3-------|5---------------|--------3-------|5---------------|
|3-5-R-----5-R---|--3-r-3-*-*-4---|3-5-R-----5-R---|--3-r-3-*-*-4---|
|----------------|----------------|----------------|----------------|

|----------------|----------------|----------------|-----------------|
|--------3-------|5---------------|----------------|-----------------|
|3-5-R-----5-R---|--3-r-3-*-*-4---|3-5-R---R---R---|R---R--/10---\---|
|----------------|----------------|----------------|-----------------|

Chorus 2 (1:47)

Verse 2: (2:10)
|----------------|----------------|----------------|----------------|
|--------3-------|3---------------|--------3-------|5---------------|
|3-5-R-----5-R---|--3-r-3-*-*-4---|3-5-R-----5-R---|--3-r-3-*-*-4---|
|----------------|----------------|----------------|----------------|

|----------------|----------------|----------------|----------------|
|--------3-------|5---------------|--------3-3-5-r-|5-5-6-r-3---5---|
|3-5-R-----5-R---|--3-r-3-*-*-4---|3-5-R-----------|--------------3-|
|----------------|----------------|----------------|----------------|

|----------------|----------------|----------------|----------------|
|--------3-------|5---------------|--------3-------|5---------------|
|3-5-R-----5-R---|--3-r-3-*-*-4---|3-5-R-----5-R---|--3-r-3-*-*-4---|
|----------------|----------------|----------------|----------------|

|----------------|----------------|----------------|---|
|--------3-------|5---------------|----------------|---|
|3-5-R-----5-R---|--3-r-3-*-*-4---|3-5-R---R---R---|-R-|
|----------------|----------------|----------------|---|
[ Tab from: http://www.guitartabs.cc/tabs/r/rage_against_the_machine/wake_up_btab_ver_3.html ]
|----------------|----------------|----------------|----------------|
|--------3-------|5---------------|--------3-------|5---------------|
|3-5-R-----5-R---|--3-r-3-*-*-4---|3-5-R-----5-R---|--3-r-3-*-*-4---|
|----------------|----------------|----------------|----------------|

|----------------|----------------|----------------|----------------|
|--------3-------|5---------------|----------3---5-|3-6-6-5-3-5-3---|
|3-5-R-----5-R---|--3-r-3-*-*-4---|5-5-5-5-5---5---|--------------5-|
|----------------|----------------|----------------|----------------|

|----------------|----------------|----------------|----------------|
|--------3-------|5---------------|--------3-------|5---------------|
|3-5-R-----5-R---|--3-r-3-*-*-4---|3-5-R-----5-R---|--3-r-3-*-*-4---|
|----------------|----------------|----------------|----------------|

|----------------|----------------|----------------|---|
|--------3-------|5---------------|----------------|---|
|3-5-R-----5-R---|--3-r-3-*-*-4---|3-5--\--R---R---|-R-|
|----------------|----------------|----------------|---|

Solo: (2:55)
|----------------|----------------|----------------|----------------|
|----------------|----------------|----------------|----------------|
|--------3-----2-|3---------------|--------3-----2-|3---------------|
|0---0-0-----0---|--0-3-5-3-0-2---|0---0-0-----0---|--0-3-5-3-0-2---|

|----------------|----------------|----------------|-----------------|
|----------------|----------------|----------------|-----------------|
|--------3-----2-|3---------------|--------3-------|5h7-r-7h8-r-8h10-|
|0---0-0-----0---|--0-3-5-3-0-2---|0---0-0-----0---|-----------------|

|----------------|----------------|----------------|----------------|
|----------------|----------------|----------------|----------------|
|--------3-----2-|3---------------|--------3-----2-|3---------------|
|0---0-0-----0---|--0-3-5-3-0-2---|0---0-0-----0---|--0-3-5-3-0-2---|

|----------------|----------------|----------------|----------------|
|----------------|----------------|----------------|----------------|
|--------3-----2-|3---------------|--------3-----2-|3---------------|
|0---0-0-----0---|--0-3-5-3-0-2---|0---0-0-----0---|--5-5-3-5-0-3-5-|

Bridge pt.1: (3:17)
|----------------|----------------|----------------|----------------|
|----------------|----------------|----------------|----------------|
|----------------|----------------|----------------|----------------|
|0-*-*-*-*-*-*-*-|*-5-5-3-5-0-3-5-|3-*-*-*-*-*-*-*-|*-5-5-3-5-0-3-5-|

|----------------|----------------|----------------|----------------|
|----------------|----------------|----------------|----------------|
|----------------|----------------|----------------|----------------|
|0-*-*-*-*-*-*-*-|r-5-5-3-5-0-3-5-|r-5-5-3-5-0-3-5-|r-5-5-3-5-0-3-5-|

|----------------|
|----------------|
|----------------|
|r-5-5-3-5-0-3-5-|

Bridge pt.2 (bridge pt.3): (x4)(3:30)
|----------------|
|----------------|
|----------------|
|0-5-5-3-5-0-3-5-|

Bridge pt.3 (x4)(3:36)
Interlude 1 pt.1 (x4)(3:41)
Interlude 1 pt.2 (x4)(3:52)
Interlude 1 pt.3 (x8)(4:04)

Fill: (4:28)
|----------------|---|
|----------------|---|
|5-\-R---R---R---|-R-|
|----------------|---|

Interlude 2: (x12)(4:31)
|----------------|----------------|
|----------------|----------------|
|--------3-----2-|3---------------|
|0---0-0-----0---|--0-3-5-3-0-2---|

Outro chorus: (5:06)
|----------------|----------------|----------------|----------------|
|----------------|----------------|----------------|----------------|
|--------3-----2-|3---------------|--------3-----2-|3---------------|
|0---0-0-----0---|--0-3-5-3-0-2---|0---0-0-----0---|--0-3-5-3-0-2---|

|----------------|----------------|----------------|-----------------|
|----------------|----------------|----------------|-----------------|
|--------3-----2-|3---------------|--------3-------|5h7-r-7h8-r-8h10-|
|0---0-0-----0---|--0-3-5-3-0-2---|0---0-0-----0---|-----------------|

|----------------|----------------|----------------|----------------|
|----------------|----------------|----------------|----------------|
|--------3-----2-|3---------------|--------3-----2-|3---------------|
|0---0-0-----0---|--0-3-5-3-0-2---|0---0-0-----0---|--0-3-5-3-0-2---|

|----------------|----------------|----------------|----------------|
|----------------|----------------|----------------|----------------|
|--------3-----2-|3---------------|--------3-----2-|3---------------|
|0---0-0-----0---|--0-3-5-3-0-2---|0---0-0-----0---|--0-3-5-3-0-2---|

(w/ some form of distortion)
|----------------|----------------|----------------|----------------|
|----------------|----------------|----------------|----------------|
|--------3-----2-|3---------------|--------3-----2-|3---------------|
|0---0-0-----0---|--0-3-5-3-0-2---|0---0-0-----0---|--0-3-5-3-0-2---|

|----------------|----------------|----------------|-----------------|
|----------------|----------------|----------------|-----------------|
|--------3-----2-|3---------------|--------3-------|5h7-r-7h8-r-8h10-|
|0---0-0-----0---|--0-3-5-3-0-2---|0---0-0-----0---|-----------------|

|----------------|----------------|----------------|----------------|
|----------------|----------------|----------------|----------------|
|--------3-----2-|3---------------|--------3-----2-|3---------------|
|0---0-0-----0---|--0-3-5-3-0-2---|0---0-0-----0---|--0-3-5-3-0-2---|

|----------------|----------------|----------------|----------------|
|----------------|----------------|----------------|----------------|
|--------3-----2-|3---------------|--------3-----2-|----------------|
|0---0-0-----0---|--0-3-5-3-0-2---|0---0-0-----0---|0-5-5-3-5-0-3-5-|

(5:52)
|----------------|----------------|----------------|----------------|
|----------------|----------------|----------------|----------------|
|----------------|----------------|----------------|----------------|
|0-*-*-*-*-*-*-*-|*-*-*-*-*-*-*-*-|*-*-*-*-*-*-*-*-|*-*-*-*-*-*-*-*-|

|----------------|
|----------------|
|----------------|
|*-*-*-*-*-*-0---|

Rest till end
Comments