Rage Against The Machine - Vietnow Chords & Tabs

 

Vietnow Chords & Tabs

Rage Against The Machine Chords & Tabs

Version: 1 Type: Tab 0 ratings
1 star 2 stars 3 stars 4 stars 5 stars
comments

Vietnow Tab

Rage Against The Machine - Veitnow

Some guy requested it so here it is

Intro  (EADGBE)

/= Slide
~= Hold

Dist

E------------------------------------
B------------------------------------
G------------------------------------
D------------------------------------
A--2-2-5-2-2-5-2-2-2-5-2-8-----------
E--0-0-3-0-0-3-0-0-0-3-0-6-----------

Chorus
[ Tab from: http://www.guitartabs.cc/tabs/r/rage_against_the_machine/vietnow_tab.html ]
E--------------------------------------
B--------------------------------------
G--------------------------------------
D--4-----------------------------------
A--------------------------------------
E----0--2-0-5~-5-6-5-2-0---------------

Outro

E----------------------------------------
B----------------------------------------
G----------------------------------------
D----------------------------------------
A---2-/7-2-/1----------------------------
E---0--0-0--0----------------------------

Thats it. Tabbed by Dave (sean_olsen007@hotmail.com)
Comments