Rage Against The Machine - Township Rebellion Chords & Tabs

 

Township Rebellion Chords & Tabs

Rage Against The Machine Chords & Tabs

Version: 5 Type: Tab 0 ratings
1 star 2 stars 3 stars 4 stars 5 stars
comments

Township Rebellion Tab

Song:  Township Rebellion
Band:  Rage Against The Machine
Album: Rage Against The Machine (Track9)
straight out the official book, this is DEFIANTLY
100% CORRECT. no arguing...
dropped d tuning.

Intro
E------------------------------------|
B--3--3--3-3-3-----------------------|
G--2--2--2-2-2--7-----7-----7-----7--|
D--0--0--0-0-0-----0-----0-----0-----|
A--0--0--0-0-0-----------------------|
D--0--0--0-0-0-----------------------|

Verse

E-----
B-----
G--7--
D-----  every 4 beats
A-----
D-----

Chorus
[ Tab from: http://www.guitartabs.cc/tabs/r/rage_against_the_machine/township_rebellion_tab_ver_5.html ]
E------------------------------|------------------------------|
B------------------------------|------------------------------|
G------------------------------|------------------------------|
D------------------------------|------------------------------|
A--3h5--------3h5--------3--5--|--3h5--------3h5--------5--2--|
D-------0--0-------0--0--3--5--|-------0--0-------0--0-----2--|

E------------------------------|-----------------------------------|
B------------------------------|-----------------------------------|
G------------------------------|-----------------------------------|
D------------------------------|---------------------5h7--5--3-----|  x2
A--3h5--------3h5--------3--5--|--3h5--------3h5----------------5--|
D-------0--0-------0--0--3--5--|-------0--0-------0----------------|

ok my email is billycorgan266@yahoo.co.uk
if you want official full versions (inc solos) off their first album.
just email me. if you want the solo to this track, likewise..
Comments