Rage Against The Machine - Township Rebellion Chords & Tabs

 

Township Rebellion Chords & Tabs

Rage Against The Machine Chords & Tabs

Version: 3 Type: Bass Tab 0 ratings
1 star 2 stars 3 stars 4 stars 5 stars
comments

Township Rebellion Bass Tab

   
Band:Rage Against the Machine
Song:Township Rebellion
Bassist:Tim Commerford
Album:Self Titled
Tuning:Standard

This is a pretty fun song to play.  One of my first tabs so i hope every one enjoys.
Intro
G---------
D---------
A-5-55-5-5
E---------

Verse(listen 4 timing)
G------------
D------------
A-5b-5b5b-5b-
E------------
[ Tab from: http://www.guitartabs.cc/tabs/r/rage_against_the_machine/township_rebellion_btab_ver_3.html ]
Chorus(why stand on a silent platform...)
G------------------------------------------------------------------------------
D------------------------------------------------------------------------5b5-32
A-3-5-0---3-5-0---3-5--3-5-0--3-5-0---5-0-3-5-0--3-5-0--3-5-3-5-0---3-5-0------
E-------6-------6------------6------6-----------6------6----------6------------

Outro
G-------------
D-------------
A-2-3-2-3-0---
E----------5-3

Thats pretty much it so enjoy.
RATM_timc
Comments