Rage Against The Machine - Take The Power Back Chords & Tabs

 

Take The Power Back Chords & Tabs

Rage Against The Machine Chords & Tabs

Version: 4 Type: Bass Tab 0 ratings
1 star 2 stars 3 stars 4 stars 5 stars
comments

Take The Power Back Bass Tab

Rage Against the Machine-Take the Power Back

it's funny because the tabs so far on ug are so bad for this song and I don't even play bass
i hate to see such a good song butchered

Tabbed by edbert

Email: mac3214@earthlink.net
AIM: mac02546

please e-mail me if u have any questions, comments, etc.

Tuning: drop D

intro(after hitting 0--0 x4)
G|-------------------------------------------------------------------------|
D|-------------3p0-------3-------------------------------------------------|
A|--------3h5-------3h5----------------------------------------------------|
D|--0--0----------------------0--0-----------------------------------------|



singing part, during solo
G|-------------------------------------------------------------------------|
D|-------------3(p0)-------3-----------------------------------------------|
A|--------3h5---------3h5--------------------------------------------------|
D|--0--0-------------------------------------------------------------------|

about every 4th time a slight change
G|-----------------------5h7-----------------------------------------------|
D|-------------3h5--5h7----------------------------------------------------|
A|--------3h5--------------------------------------------------------------|
D|--0--0-------------------------------------------------------------------|
(sometimes this part is not heard)



fill: "we gotta take the power back..."
G|-------------------------------------------------------------------------|
D|-------------------------------------------------------------------------|
A|-----5-------3--4--5-----------------------------------------------------|
D|--0-------0-----------0--0-----------------------------------------------|
x4
[ Tab from: http://www.guitartabs.cc/tabs/r/rage_against_the_machine/take_the_power_back_btab_ver_4.html ]
last time
G|-------------------------------------------------------------------------|
D|-------------------------------------------------------------------------|
A|-----5-------3-----------------------------------------------------------|
D|--0-------0--------------------------------------------------------------|



fill:  "like this..."
G|-------------------------------------------------------------------------|
D|-------------------------------------------------------------------------|
A|--5--4--3--------3-------------------------------------------------------|
D|-----------3--5----------------------------------------------------------|


after fill   "the teacher stands..."
G|-------------------------------------------------------------------------|
D|-------------------------------------------------------------------------|
A|--0--0-------------------------------------------------------------------|
D|--0--0-------------------------------------------------------------------|



then the small solo  "no more lies..."
G|-------------------------------------------------------------------------|
D|--2-----2------2--3--3------3------3--5--5---0--5---0--5--3--3-----3----3|
A|-----3------3------------3------3-------------------------------3-----3--|
D|-------------------------------------------------------------------------|
x4



outro
G|-------------------------------------------------------------------------|
D|-------------------------------------------------------------------------|
A|--5-4-3-x-5-4-3-x-5-4-3-x-3-3333-4---------------------------------------|
D|-------------------------------------------------------------------------|

last chord
G|-------------------------------------------------------------------------|
D|-------------------------------------------------------------------------|
A|-------------------------------------------------------------------------|
D|--14-----14\-------------------------------------------------------------|
Comments