Rage Against The Machine - Space Bats Chords & Tabs

 

Space Bats Chords & Tabs

Rage Against The Machine Chords & Tabs

Version: 2 Type: Tab 0 ratings
1 star 2 stars 3 stars 4 stars 5 stars
comments

Space Bats Tab

							Tabbed By J Pike
Track : "Space Bats"
Artist : "Rage Against the Machine"
Guitar Tablature
Standard Tuning.

Fig 1
E:    ---x-x-x------X-X-x------x-x-X------x----x-------X-----------------)
B:    ---x-x-x------X-X-x------x-x-X------x----x-------X-----------------)
G:    ---5-5-x------8-8-x------x-x-X-----10---10-------X         Repeat--) x2
D:    ---6-6-x------9-9-x------8-8-X-----11---11-------X-----------------)
A:    ---6-6-0------9-9-7------9-9-0-----11---11-------0-----------------)
E     ---4-4-0------7-7-7------9-9-0------9----9-------0-----------------)

E:    ---x-x-x------X-X-x------x-x-X------x----x----x-----X-)
B:    ---x-x-x------X-X-x------x-x-X------x----x----x-----X-)
G:    ---5-5-x------8-8-x------x-x-X-----10---10---10-----X-)
D:    ---6-6-x------9-9-x------8-8-X-----11---11---10-----X-)
A:    ---6-6-0------9-9-7------9-9-0-----11---11---10-----0-)
E     ---4-4-0------7-7-7------9-9-0------9----9-----9----0-)
	Space - Bats				You - - - -Bet - Yer - - Ass!

[ Tab from: http://www.guitartabs.cc/tabs/r/rage_against_the_machine/space_bats_tab_ver_2.html ]
Fig 2
E:	---x-x-x-------x-----X-x------x-x-X-------x-x-x-|
B:	---x-x-x-------x-----X-x------x-x-X-------x-x-x-|
G:	---5-5-x------10----10-x------8-8-x-------x-x-x-|
D:	---6-6-x------11----11-x------9-9-x-------8-8-x-|
A:	---6-6-0------11----11-0------9-9-7-------9-9-0-|
E:	---4-4-0-------9-----9-0------7-7-7-------9-9-0-|

Fig 3
E:    ---x-x-x-------x-----X-x------x-x-X-------x-x-x--)
B:    ---x-x-x-------x-----X-x------x-x-X-------x-x-x--)
G:    ---5-5-x------10----10-x------8-8-x-------6-6-x--)
D:    ---6-6-x------11----11-x------9-9-x-------7-7-x--)
A:    ---6-6-0------11----11-0------9-9-7-------7-7-0--)
E:    ---4-4-0-------9-----9-0------7-7-7-------5-5-0--)
(Alternative 1:    low E:----------------5-7-5-2-4-----)

E:	---x-x-x-------x-----X-x------x-x-X-------x-x-x-|
B:	---x-x-x-------x-----X-x------x-x-X-------x-x-x-|
G:	---5-5-x------10----10-x------8-8-x-------x-x-x-|
D:	---6-6-x------11----11-x------9-9-x-------8-8-x-|
A:	---6-6-0------11----11-0------9-9-7-------9-9-0-|
E:	---4-4-0--------9----9-0------7-7-7-------9-9-0-|

Fig 4
D:	---7-7-7-7-7-7-7------4-4-4------9-9------0-|
A:	---7-7-7-7-7-7-7------4-4-4------9-9------0-|
E:	---5-5-5-5-5-5-5------2-2-2------7-7------0-|	(back to Fig 1).
Comments