Rage Against The Machine - Snakecharmer Chords & Tabs

 

Snakecharmer Chords & Tabs

Rage Against The Machine Chords & Tabs

Version: 3 Type: Tab 0 ratings
1 star 2 stars 3 stars 4 stars 5 stars
comments

Snakecharmer Tab

   
Drop-D tuning...
--------------------------------------------------------
All these riffs are in order of appearance in the song.
If you don't understand, then listen to the song and
play along with it.
It's not as hard as it might seem.
--------------------------------------------------------

Riff 1:
|-------------------------(Simply muffle this in the beginning...--------|
|------------------------------when the song opens up, just quit---------|
|----12------------------12---------muffling the sound)------------------|
|------------------------------------------------------------------------|
|-0-------------------0--------------------------------------------------|
|-0------10-12-10-12--0-----10-12-11-10----------------------------------|
[ Tab from: http://www.guitartabs.cc/tabs/r/rage_against_the_machine/snakecharmer_tab_ver_3.html ]
Riff 2:
|------------------------------------------------------------------------|
|--------------(the break between riff 1 and 2)--------------------------|
|------------------------------------------------------------------------|
|------------------------------------------------------------------------|
|------------------------------------------------------------------------|
|-12-12-12-12-12-10(9)(9)---12-12-12-12-12-10(9)(9)----------------------|

Riff 3:
|----10-----------10---------(also used in the beginning riff)-----------|
|----10-11--------10-11--------------------------------------------------|
|----10----12-----10----12---(this is when the bass is sliding from------|
|----10-----------10----------fret 12 to 0 on the D string...------------|
|-0-------------0-------------It sounds fraggin' awesome)----------------|
|-0-------------0--------------------------------------------------------|

Riff 4:
|------------------------------------------------------------------------|
|------------------------------------------------------------------------|
|-----------------("Interested in you, interested in you!")--------------|
|------------------------------------------------------------------------|
|-0-0--5-3-0--7-5-0--12-10-3--------0-12--12--12-10--5-3--0--------------|
|-0-0--5-3-0--7-5-0--12-10-3--------0-12--12--12-10--5-3--0--------------|

--------------------------------------------------------
Questions? Comments? E-mail: zoso_insane@hotmail.com.
Enjoy playing Snakecharmer!
--------------------------------------------------------
Comments