Rage Against The Machine - Snakecharmer Chords & Tabs

 

Snakecharmer Chords & Tabs

Rage Against The Machine Chords & Tabs

Version: 3 Type: Bass Tab 0 ratings
1 star 2 stars 3 stars 4 stars 5 stars
comments

Snakecharmer Bass Tab

Rage Against The Machine - Snakecharmer

Tabbed By Stephen Pang (piequat@hotmail.com)

* Dropped D Tuning *

Verse
G|----------|
D|-------3--|
A|----5-----|
D|-0--------|

Chorus
G|---------------|---------------|
D|---------------|---------------|
A|----5--3-5-3-5-|----5----5-4-3-|
D|-0-------------|-0-----0-------|

G|--------------|
D|--------------|
A|-5-5-5-5-5-3--|
D|--------------|
[ Tab from: http://www.guitartabs.cc/tabs/r/rage_against_the_machine/snakecharmer_btab_ver_3.html ]
G|-----|
D|-----|
A|--/5-|
D|-0---|

"yes you"/"interested in you"
G|----------------------------|    |-------------------|
D|----------------------------|    |-------------------|
A|---------------------5-3----| x3 |---5--5--5-3-------|
D|-0--0--5-3-0--7-5-0------3--|    |-0------------5-3--|

Guitar Solo variation
G|----------------------|
D|-----------3-4-5-6-7--|
A|----5----5------------|
D|-0-----0--------------|
Comments