Rage Against The Machine - Settle For Nothing Chords & Tabs

 

Settle For Nothing Chords & Tabs

Rage Against The Machine Chords & Tabs

Version: 4 Type: Tab 0 ratings
1 star 2 stars 3 stars 4 stars 5 stars
comments

Settle For Nothing Tab

regular tuning EADGBe

|-14-12-----------------------------------------------------10-----|
|-------15-14-12-----------------------------------10h12h14----14v-|
|----------------14-12-11----11v----------11h12h14-----------------|
|-------------------------14-----11h12h14--------------------------|
|------------------------------------------------------------------|
|------------------------------------------------------------------|

                                      rake
|----------14-15-17br17-15-14--------------------------------------|
|-14h15h17--------------------15-----------------------------------|
|--------------------------------14v-------11-12-14-12-11----11-11-|
|---------------------------------------12----------------14-------|
|------------------------------------12----------------------------|
|------------------------------------------------------------------|


|------------------------------------------------------------------|
|----------------12----14----12------------------------------------|
|-11-12-11-12-11----11----11----11v----------11-12-14br14v---------|
|-----------------------------------------12-----------------------|
|--------------------------------------12--------------------------|
|-----------------------------------14-----------------------------|

[ Tab from: http://www.guitartabs.cc/tabs/r/rage_against_the_machine/settle_for_nothing_tab_ver_4.html ]
|-x------------x-----------10-11-12-11-10--------------------------|
|---x------------x------------------------12-11-10----11-10--------|
|-----x------------x-------------------------------12--------------|
|-------x------------x---------------------------------------------|
|---------x------------x-------------------------------------------|
|-----------x------------x-----------------------------------------|


|----------------------------------------------------------10------|
|-------------------------------------------------10-12-13---------|
|-12-11-10----11-10----------------------10-11-12------------------|
|----------12-------12-11-10----10-11-12---------------------------|
|----------------------------12------------------------------------|
|------------------------------------------------------------------|


|----------12-11-10------------------------------------------------|
|-13-12-10----------12-11-10----11-10------------------------------|
|----------------------------12-------12-11-10-9-------------------|
|------------------------------------------------10-9v-------------|
|------------------------------------------------------------------|
|------------------------------------------------------------------|


|----------13------------------10----------------------------------|
|-13h15h17----17-17v--10h12h14----14-14v---------------------------|
|----------------------------------------------------11-11-11v-----|
|-------------------------------------------11h12h14---------------|
|----------------------------------------12------------------------|
|------------------------------------------------------------------|
Comments