Rage Against The Machine - Settle For Nothing Chords & Tabs

 

Settle For Nothing Chords & Tabs

Rage Against The Machine Chords & Tabs

Version: 3 Type: Bass Tab 0 ratings
1 star 2 stars 3 stars 4 stars 5 stars
comments

Settle For Nothing Bass Tab

   
-----------------------------------------------------------------------------
			     SETTLE FOR NOTHING - Rage Against The Machine
-----------------------------------------------------------------------------

Tabbed By : The Bowl
e-mail: bowl_is_tres_mint@hotmail.com

Tuning: Standard (EADG)

Verse
[ Tab from: http://www.guitartabs.cc/tabs/r/rage_against_the_machine/settle_for_nothing_btab_ver_3.html ]
G|-----------------------------------------------|
D|-12-0-12-9---12-0-12-8---12-0-12-7---12-0-12-8-|
A|-----------------------------------------------|
E|-----------------------------------------------|

Chorus

G|-------------|
D|-------------|
A|---0---------|
E|-0---0-1-3-2-|

Variation of Chorus (every 4th time)

G|---------------|
D|---------------|
A|---0---------9-|
E|-0---0-1-3-2---|


ORDER:

Verse x 6
Chorus x 8
Verse x 5
Chorus x 16
Verse x 6
Chorus x 16
Verse x 1

| /  slide up
| \  slide down
| h  hammer-on
| p  pull-off
| ~  vibrato
| +  harmonic
| x  Mute note
=============================================================================
Comments