Rage Against The Machine - Revolver Chords & Tabs

 

Revolver Chords & Tabs

Rage Against The Machine Chords & Tabs

Version: 2 Type: Tab 1 rating
1 star 2 stars 3 stars 4 stars 5 stars
comments

Revolver Tab

Song: revolver 

Artist: Rage Against the Machine 

Album: Evil empire

Tabbed By: Aaron Brown aka SKIZ

Tuning: Drop D

I don't know what in the f*king hell Tom does on the intro but i'd 
recommend you either just f*ck around or just start off in the song
where Tom turns up the guitar and kicks into riff one. Yea if ya got 
a slide use it but i prefer not to because it sounds ok if ya just  
bend the notes several times. 


riff one - medium distortion

e-----------------------------------------------------------| 
B-----------------------------------------------------------| 
G-----------------------------------------------------------| 
D---------------------3-------------------------------------| 
A-3-4-5-------3-5-3-5-----3-4-5-------3-5-3-5-----3-4-5-----| 
D-------0-3-5-------------------0-3-5---------0---------0-3-| 

e-----------------------------------------------------------| 
B-----------------------------------------------------------| 
G-----------------------------------------------------------|
D-----------3-4-3-------------------------------------------|
A---3-5-3-5-------3-4-5-------3-5-3-5-----------------------| 
D-5---------------------0-3-5---------0---------------------| 


e----^------------------------^--------------------^--------| 
B----6------------------------6--------------------6--------| 
G----5------------------------5--------------------5--------| 
D----0-----------------3------0--------------------0--------| 
A------------3-5-3-5-----------------3-5-3-5----------------|
D--------3-5---------------------3-5---------0--------------|

e----------------------^------------------------------------| 
B----------------------6------------------------------------|
G----------------------5------------------------------------| 
D-------------3-4-3----0------------------------------------| 
A-----3-5-3-5-------------------3-5-3-5---------------------| 
D-3-5---------------------0-3-5---------0-------------------| 



verse - clean
[ Tab from: http://www.guitartabs.cc/tabs/r/rage_against_the_machine/revolver_tab_ver_2.html ]
e-----------------------------------------------------------| 
B-----^-----------------------------------------------------| 
G-----5---8-8-8-8-8-8-8-------------------------------------| 
D-----------------------------------------------------------| 
A-----------------------------------------------------------| 
D-0---------------------------------------------------------|
let ring    pm 8's-lightly 


bridge part before choruses - medium distortion

e-----------------------------------------------------------| 
B-----------------------------------------------------------| 
G-5-5-5-5-5-5-5-5-------------------------------------------| 
D-----------------------------------------------------------| 
A-----------------------------------------------------------| 
D-----------------------------------------------------------| 

chorus: 

e-----------------------------------------------------------| 
B-----------------------------------------------------------| 
G-----------------------------------------------------------| 
D---------3-------3-------3---------------------------------| 
A-5---3-5-----3-5-----3-5---------3-------------------------|
D---0-------0-------0-------0-3-5---------------------------|


in between chorus and solo just click the high strings palm muted
while pm'ing them.


solo: use medium distortion with a liitle chorus 

e---^--^------^--^-------^--^-------^--^--------------------| 
B-9/10-10---9/10-10----9/10-10----9/10-10-------------------| 
G-----------------------------------------------------------| 
D-----------------------------------------------------------| 
A-----------------------------------------------------------| 
D-----------------------------------------------------------| 

e-13---10--^-----13---10--^------13---10--^---17-17-17-17-17| 
B----------10-------------10--------------10----------------| 
G-----------------------------------------------------------|
D-----------------------------------------------------------|
A-----------------------------------------------------------| 
D-----------------------------------------------------------| 


slow part after solo - clean


e-----------------------------------------------------------|
B-6-----6-----------6---------------------------------------|
G-5-----5-----2-----5---------------------------------------| 
D-0-----0-----0-----0---------------------------------------| 
A-------------0---------------------------------------------|
D-------------0---------------------------------------------|

Comments