Rage Against The Machine - No Shelter Chords & Tabs

 

No Shelter Chords & Tabs

Rage Against The Machine Chords & Tabs

Version: 1 Type: Bass Tab 0 ratings
1 star 2 stars 3 stars 4 stars 5 stars
comments

No Shelter Bass Tab

No Shelter, Corrected from Grant Vogl's original tab
Rage Against the Machine
Godzilla Soundtrack
Tabbed by Sam Buchta (mereel@hotmail.com)

After looking at Grant Vogl's corrected tab, i noticed there's still some 
mistakes in it
At least if you want to play it like it's played on the CD
Nothing big but I thought i'd fix it a little

Main Riff

G|--8/10-------8/10-------|
D|--0~~~--0-0--0~~~-------|
A|------------------------|
D|-------------------0-0--|

Play the open high D and let it ring while playing the D# slide to F
That's what the ~'s mean ;P just repeat this over and over

"thin line between entertainment and war"
[ Tab from: http://www.guitartabs.cc/tabs/r/rage_against_the_machine/no_shelter_btab.html ]
G|------------------------|
D|-12-12-12-12-12-12------|
A|------------------------|
D|--------------------12--|

Solo part (play each note however many times needed, second time the open D
is played many times before going to the C)

G|-----------10----------------|
D|--0-10---0----12-10-12-------|
A|-------8---------------8-10--|
D|-----------------------------|


End Part (repeat as many times as needed)

G|----------------------|
D|---------3------------|
A|----3------5-3-5------|
D|--0--3-0---------3-5--|


not too different from what Grant tabbed, just a few things here and there,
octaves and the such.  I learned it off his tab so I'm giving him credit for
my corrected tab too :)

Comments