Rage Against The Machine - New Millennium Homes Chords & Tabs

 

New Millennium Homes Chords & Tabs

Rage Against The Machine Chords & Tabs

Version: 1 Type: Bass Tab 0 ratings
1 star 2 stars 3 stars 4 stars 5 stars
comments

New Millennium Homes Bass Tab

Song:  New Millennium Homes

Artist:  Rage Against the Machine

Album:  The Battle of Los Angeles

Tabbed by:  Andrew Hassel
[ Tab from: http://www.guitartabs.cc/tabs/r/rage_against_the_machine/new_millennium_homes_btab.html ]
My e-mail:  eddie_98_62054@yahoo.com
  
Intro and chorus    Repeat (x) # of times
G/-------------------------------/------------------------------------
D/-------------------------------/-----------5-----7----5-7---------
A/-------------5-7-------5-----/-------5-7----7----7--------------
E/-------0-0---------0------5--/--0-0------------------------0----

Verses
                                            Bridge
G/--------------------------/------------------------------/------------------------------------
D/-------------------------/------------------------------/-------------------------------------
A/-----10----------------/------------------------------/------------------------------------
E/-----12---0---0-0-0-/------000---12-12-12-000---------/----------------------------------

And that should be it! Have fun!
~Andrew
Comments