Rage Against The Machine - New Millenium Homes Chords & Tabs

 

New Millenium Homes Chords & Tabs

Rage Against The Machine Chords & Tabs

Version: 1 Type: Tab 0 ratings
1 star 2 stars 3 stars 4 stars 5 stars
comments

New Millenium Homes Tab

   
New Millenium Homes
by Rage Against the Machine

*Some kind of distortion should be used in this song, but not a heavy distortion

Intro & Chorus & Outro/Riff A (bass intro about 7 bars)

E-----------------------------------------------------------------
B-----------------------------------------------------------------
G-----------------------------------------------------------------
D-----------------------------------------------------------------
A---5-0----5-7---5-0----5-7---5-0-----and so on... just listen to the song
E-0-----00-----0-----00-----0-------------------------------------

then...
[ Tab from: http://www.guitartabs.cc/tabs/r/rage_against_the_machine/new_millenium_homes_tab.html ]
E-------------------------
B-------------------------
G-------------------------
D-----------5---7---5-7---
A-----5-7-----7---7-------
E-0-0-----0-------------0-


Verse/Riff B

  E 
E---------
B---------
G-1------- just keep repeating the E chord (again, listen to the song for patterns & repetition)
D-2-------
A-2-------
E---------


Pre-Chorus/Riff C

E-------------------------
B-------------------------
G------------------------- keeps repeating until chorus
D-------------------------
A-------7-7-7-------5-----
E-0-0-0-------0-0-0-------


Sequence: 
Riff A
Riff B
Riff C
Riff A
Riff B
Riff C
Riff A

That's all! Enjoy!






Comments