Rage Against The Machine - New Millenium Homes Chords & Tabs

 

New Millenium Homes Chords & Tabs

Rage Against The Machine Chords & Tabs

Version: 3 Type: Bass Tab 0 ratings
1 star 2 stars 3 stars 4 stars 5 stars
comments

New Millenium Homes Bass Tab

Album:The battle of Los angales.
Title:New millenium homes
Writen by:Rage against the machine


Intro
g---------------
d---------------
a-----5h7---5---
e-0-0-----0---5-

Bridge
g------------------
d---5---7----------
a-----7----5-7-----
e-0-------0----0---Hold last E
[ Tab from: http://www.guitartabs.cc/tabs/r/rage_against_the_machine/new_millenium_homes_btab_ver_3.html ]
Vers                     Fill in secound vers
g---------------------   g---------
d-9--------9----------   d---------
a-7--------7----------   a---5---7-
e---0--0-0---0--0-0-0-   e-0---0---

Solo
g-------------------------------------------------------------------
d----------------5-------------5-------------5------------5---12-12-
a------------------5-----5h7-----5-----5h7-----5-----5h7----5-------
e-intro 4 Bars-0-----0-0-----0-----0-0-----0-----0-0-----0----------

g-------12-12-12-12-
d-10-10-------------
a-------------------
e-------------------
Comments