Rage Against The Machine - Microphone Fiend Chords & Tabs

 

Microphone Fiend Chords & Tabs

Rage Against The Machine Chords & Tabs

Version: 4 Type: Tab 0 ratings
1 star 2 stars 3 stars 4 stars 5 stars
comments

Microphone Fiend Tab

   
Rage Against The Machine

Microphone fiend.

From the album "Renagades".

Part 1.


Intro and verse.

e-----     e-----|
B-----     B-----|
G-----     G-----|
D--4--     D--2--|
A--4--     A--2--|
E--2--     E-----|

This goes during first two verse with wha-wha pedal.

e---------------------------------------|
B---------------------------------------|
G--10-10-10-10-8-8-8-8-6-6-6-6-4-4-4-4--|
D---------------------------------------|
A---------------------------------------|
E---------------------------------------|

Just before the chorus.

e-----
B-----
G-----
D--7--
A--7--
E--5--


Chorus.

E, F, F, E, C, T a smooth operator operating correctly...

e-----------------------------|
B-----------------------------|
G-----------------------------|
D--4----x-x--4--7-------------|
A--4----x-x--4--7--7-9-7------|
E--2----x-x--2--5--------7-5--|


Chorus #2.
[ Tab from: http://www.guitartabs.cc/tabs/r/rage_against_the_machine/microphone_fiend_tab_ver_4.html ]
e-------------------------------|
B-------------------------------|
G-------------------------------|
D--4--7--4--7--4--7-------------|
A--4--7--4--7--4--7--7-9-7------|
E--2--5--2--5--2--5--------7-5--|


After the second chorus comes this.

Bend down the first chord.

e------------|
B------------|
G------------|
D--4---------|
A--4---------|
E--2--0-1-2--|


Then chorus.

e--------------------------|
B--------------------------|
G--------------------------|
D--4----x-x--4-------------|
A--4----x-x--4--7-9-7------|
E--2----x-x--2--------7-5--|

And last part.

e-------------------------------|
B-------------------------------|
G-------------------------------|
D--4--7--4--7--4--7-------------|
A--4--7--4--7--4--7--7-9-7------|
E--2--5--2--5--2--5--------7-5--|


At the absolutly last "thing" the last chorust part changes to this.

e-------------------------------|
B-------------------------------|
G-------------------------------|
D--4--7--4--7--4--7-------------|
A--4--7--4--7--4--7--7-9-7-9-7--|
E--2--5--2--5--2--5-------------|


Well thats it!

I think its right but if its not please mail me at:

monseurfjant@hotmail.com

Enjoy!

Tabbed by Sebastian Larsson.
Comments