Rage Against The Machine - Maria Chords & Tabs

 

Maria Chords & Tabs

Rage Against The Machine Chords & Tabs

Version: 1 Type: Tab 0 ratings
1 star 2 stars 3 stars 4 stars 5 stars
comments

Maria Tab

standard tuning
this is from the tab book, so its pretty damn right, ill put some more up later.

h/= slide from one note to the other but only hit the first note

with echo repeats and whammy pedal
Verse
|--------------------------------------------------------
|--21~~~~~~~~~~~~~~~~~~~~~~~~~~~~~~~~~~~~~~~~~~~~~~~~~~~~
|--------------------------------------------------------
|--------------------------------------------------------
|--------------------------------------------------------
|--------------------------------------------------------

Pre-Chourus
|--------------------------------------------------------
|--------------------------------------------------------
|--------------------------------------------------------
|--------------------------------2--------(2)------------
|--------------------------------2--------(2)------------
|--------------------------------|___________------------
                                  -1
Chorus 
|--------------------------------------------------------
|--------------------------------------------------------
|--------------------------------------------------------
|--------------------------------------------------------
|--7-5-7--0-5-2-5--2p0-----------------------------------
|-----------------------3-5-0--3-0-3--0-5-3-5--0-7-5-7---

|--------------------------------------------------------
|--------------------------------------------------------
|--------------------------------------------------------
|--------------------------------------------------------
|--7-5-7--0-5-2-5--2p0-----------------------------------
|-----------------------3-5-0--3-0-3--0-5-3-5--0-0-5-7---

Bridge
*Digitech whammy pedal set for a whole step below
|---------------------------------
|---------------------------------
|---------1------------------1----x2
|-------2---2---2----------2---2--
|-----2-------2---2------2--------
|--0-------------------0----------
[ Tab from: http://www.guitartabs.cc/tabs/r/rage_against_the_machine/maria_tab.html ]
|-------------------------------------------
|-------------------------------------------
|-------------13----------------------13----x2
|---------14-----14----14----------14----14-
|-----14------------14----14----14----------
|--0--------------------------0-------------

Solo
*Digitech whammy pedal set for a whole step below
|--/22--17\0/16/0\16/0--/22\17/0\16/0\16/0--/22--17\0/17\
|--------------------------------------------------------
|--------------------------------------------------------
|--------------------------------------------------------
|--------------------------------------------------------
|--------------------------------------------------------
                                     Steady Gliss 
|--0/17\0/--0/17\0/12-x-x-x-x-x-x-x-22\x-22(22)\x-22\x-22
|--------------------------------------------------------
|--------------------------------------------------------
|--------------------------------------------------------
|--------------------------------------------------------
|--------------------------------------------------------
               Steady Gliss
|--\x-x-x-x-x-22\x-22\x-22\x-22\x-x-x\x-------------
|----------------------------------------2h/4h/6-4--
|---------------------------------------------------
|---------------------------------------------------
|---------------------------------------------------
|---------------------------------------------------

|---------------------------------------------------
|--4h/6h/8/6-6h/8h/10/8-8h/10h/12/10-10h/12h/14-16--
|---------------------------------------------------
|---------------------------------------------------
|---------------------------------------------------
|---------------------------------------------------

|-----22----17----------22---17----16-17--17---
|--18----21----18----18---21----18--------18---
|-----------------18---------------------------
|----------------------------------------------
|----------------------------------------------
|----------------------------------------------

Fill 1
|---------
|--19h/14-
|---------x9
|---------
|---------
|---------
You can work out the order by listening to the song.
Comments