Rage Against The Machine - Maria Chords & Tabs

 

Maria Chords & Tabs

Rage Against The Machine Chords & Tabs

Version: 1 Type: Bass Tab 0 ratings
1 star 2 stars 3 stars 4 stars 5 stars
comments

Maria Bass Tab

MARIA
Rage Against the Machine

Tabbed by Shor Bowman (abowman@sas.upenn.edu)
This is a correction of the earlier tab of the same song.
I would credit the author of that tab, but I couldn't 
find his information anywhere.  I've made corrections to
his interpretations of the first riff and the riff that's
played during the guitar solo.  He said that his interp.
wasn't 100% accurate, but I think this one is. There was a
fourth riff on the old tab that I was uncertain about--I 
have no idea where it fit into the song, so I omitted it.
Please mail me if you have any questions/concerns.

Riff #1 (Verse)
G-----------------------------------|
D-----------------------------------|
A--------------------5-5-5-7-7-7-7--|
E--0-0-0-3-3-3-5-5-5----------------|
[ Tab from: http://www.guitartabs.cc/tabs/r/rage_against_the_machine/maria_btab.html ]
Riff #2 (Chorus)
G-----------------------------------------------------|
D-----------------------------------------------------|
A--7-5-7----5-3-5-------------------------------------| 
E---------7--------5-3-5--0--3-0-3--0-5-3-5--0-7-5-7--|

Riff #3 (Guitar solo)
G-----------------------------------------------------|
D-----------------------------------------------------|
A--7-5-7----5-3-5-------------------------------------|
E---------7--------5-3-5--0--3-0-3--0-5-3-5--0-7-5-7--|

G-------------------------------------------------------|
D-------------------------------------------------------|
A--7-5/10--7-5---5--------------------------------------|
E--------------8---7-5-3-5--0--3-0-3--0-5-3-5--0-7-5-7--|

That's it; a really jiving song.  Enjoy! :)
Spacing=relative beats between notes
/=slide

Comments