Rage Against The Machine - Maggies Farm Chords & Tabs

 

Maggies Farm Chords & Tabs

Rage Against The Machine Chords & Tabs

Version: 4 Type: Tab 0 ratings
1 star 2 stars 3 stars 4 stars 5 stars
comments

Maggies Farm Tab

   
Rage Against The Machine
Album Renegades
Maggie's Farm
Tabbed by Hmmad84
Drop D tuning

This Tab is made for two Guitars and is tabbed directly from the official sheet book.
This version is not exactly like the original track from R.A.T.M, but edited version
without any effects other than Distortion. I made this tab because we wanted to perform
at my college with this Track, but we didn't have the effects R.A.T.M use, so I edited to
suite us. The Tab isn't especially well-arranged, but you should figure it out if you
listening to Maggie's Farm. This one is with drop d tune, but Tom Morello plays with
drop b. It's up to you.

Intro Riff A, Guitar 1 

e--12--12--12--12---- e--10--10--10--10----
b----12--12--12--12-- b----12--12--12--12--
g-------------------- g--------------------
d-------------------- d--------------------
a-------------------- a--------------------
d-------------------- d-------------------- 

e--12--12--12--12---- e--10--10--10--------
b----12--12--12--12-- b----12--12----------
g-------------------- g--------------------
d-------------------- d--------------------
a-------------------- a--------------------
d-------------------- d----------------18/-

Riff B, Guitar 1 & 2 

e------------------------------------------------
b------------------------------------------------
g------------------------------------------------
d---------------------------------0--------------
a-----------------------------0--2--2--0---------
d--0--0--3p0-0--0--0---------------------5---3--- 
Repeat 4x

Chorus Riff C, Guitar 1 and 2, Palmmute 

e------------------------------------------------
b------------------------------------------------
g------------------------------------------------
d------------------------------------------------
a------------------------------------------------
d--0--0--3p0-0--3p0---0---5--0--0----3p0---0---0-
Guitar 1 Repeat 4x, guitar 2 repeat 8x

Backgroundstrum, Guitar 1

e------------------------------------------------
b------------------------------------------------
g-------------2----------------------------------
d-------------2----------------------------------
a---------------------------2--------------------
d----0---0-----------00----5--------------------
Repeat 2x

Riff D, Guitar 1 and 2, 

e-------------------------------------------------
b-------------------------------------------------
g-------------------------------------------------
d-------------------------------------------------
a-------------------------------------------------
d---0---0---X---X---0---X---X---0---X--X--X--X----
Repeat 4x

Riff E, Guitar 1 and 2
[ Tab from: http://www.guitartabs.cc/tabs/r/rage_against_the_machine/maggies_farm_tab_ver_4.html ]
e-------------------------------------------------
b-------------------------------------------------
g-------------------------------------------------
d-------------------------------------------------
a-------------------------------------------------
d---0---0---3p0-0---0---03p0---0---5--------------
Repeat 4x

Chords_part1, Guitar 1 and 2

e-----------------------------------------------------
b-----------------------------------------------------
g-----------------------------------------------------
d-----------------------------------------------------
a--12--12--12--12--12--12--12--12\7-7-7-7-7-7-7-7---7-
d--10--10--10--10--10--10--10--10\55555555---5

**Repeat Riff D 2x Guitar 1 and 2

Chords_part2, Guitar 1 and 2

e-----------------------------------------------------------------
b-----------------------------------------------------------------
g-----------------------------------------------------------------
d-----------------------------------------------------------------
a--12--12--12--12--12--12--12--12\7-7-7-7-7-7-7-7---7-------------
d--10--10--10--10--10--10--10--10\55555555---50------\19--
    Chords repeat8x               Chords repeat12x

**Repeat Riff B 2x

**Guitar 1 repeat Chorus Riff 4x and Background strum 2x while Guitar 2 repeat Chorus Riff C 8x

**Guitar 1 & 2 repeat Riff D 4X and then Repeat Riff E 4x

**Guitar 1 & 2 repeat chords part 1 and 2

Guitar solo:

Tom M, uses some effects, but can just play the notes: a- b- c- e - f- g 
while guitar two plays the notes a and b. You can also play the E-BluesScale, 
which includes some of these notes


**After solo Guitar 2 play:  
 
e--12--12--12--12---- e--10--10--10--10----
b----12--12--12--12-- b----12--12--12--12--
g-------------------- g--------------------
d-------------------- d--------------------
a-------------------- a--------------------
d-------------------- d-------------------- 
Repeat 4x

e--12--12--12--12---- e--10--10--10--10----
b----12--12--12--12-- b----12--12--12--12--
g-------------------- g--------------------
d-------------------- d--------------------
a-------------------- a--------------------
d-------------------- d-------------------- 
Repeat2x

While Guitar 1 play
e------------------------------------------
b------------------------------------------
g------------------------------------------
d----------------5----7--------------------
a----------------5----7--------------------
d----------------5----7--------------------
Repeat 4x

**Guitar 1 & 2 Repeat Chords_part1 

**Repeat Riff D 2x Guitar 1 & 2

**Guitar 1 & 2 Repeat Chords_part1 

**Guitar 1 Repeat Riff B 2x in slow tempo

**Outro. Guitar 2 Repeat Riff B about 10 times or so, still in slow tempo while guitar 1 plays first
part of Riff B, and thereafter slides from ninth fret down. Guitar 1 can play anything in
the outro, just follow the beats and play around 12, 13, 14th frets, or play the E-Bluesscale again.     

That's it, have fun. If you have comments or questions mail me at H_M_M_A_D@hotmail.com
Comments