Rage Against The Machine - Kick Out The Jams Chords & Tabs

 

Kick Out The Jams Chords & Tabs

Rage Against The Machine Chords & Tabs

Version: 2 Type: Tab 0 ratings
1 star 2 stars 3 stars 4 stars 5 stars
comments

Kick Out The Jams Tab

   
----------------------------------------------------------------------
              KICK OUT THE JAMS - RAGE AGAINST THE MACHINE
----------------------------------------------------------------------
Tabbed by:Sinder
Email:spartan130@hotmail.com

	Can't belive ultimate guitar does not have a good version thsi

site is awsome.  I studied the tabs on here and a few in dif places
and well this sounds cool. This isn't perfect listen to song for to
see exact timming and I belive that the live version is as folows
without the Muted strings in the beggining and of faster pace than
cd version.I know has to be something wrong with the structure.This
is as close as i could get it. I hope itsounds good. Hope u guys like
it Please leave comments. Rage,Tom and Zack Are awsome.
[ Tab from: http://www.guitartabs.cc/tabs/r/rage_against_the_machine/kick_out_the_jams_tab_ver_2.html ]
Tuning:Standard
Intro
e|----------------|-------------------------|
B|----------------|-------------------------|
G|--2--2--2--4----|-------------------------|
D|--2--2--2--4----|--x--x--x--x--x--x--x----|
A|--0--0--0--2----|--x--x--x--x--x--x--x----|
E|----------------|--x--x--x--x--x--x--x----|
  We Gotta Kickem out!    Riff 1
e|-----------------------|----------------------------------|
B|-----------------------|----------------------------------|
G|-----------------------|----------------------------------|
D|--x--x--x--x--x--x--x--|--------5--7----7--7---7b&r----7--|
A|--x--x--x--x--x--x--x--|--7--7--0--0----0--0---0----------|
E|--x--x--x--x--x--x--x--|--0--0----------------------------|
  Riff 2     Riff 1&2 backed by bass
e|------------------------------------------------|
B|------------------------------------------------|
G|------------------------------------------------|
D|--------5--7----7--7--7---7---------------------|
A|--7--7--0--0----0--0--0---0---------------------|
E|--0--0------------------------------------------|
  Intro W/Fill
e|---------------------------------------------------|
B|---------------------------------------------------|
G|--2--2--2--4--------------------------------------0|
D|--2--2--2--4--------x--x--x--x--x--x--x--x--x--x--0|
A|--0--0--0--2--------x--x--x--x--x--x--x--x--x--x--0|
E|--------------------x--x--x--x--x--x--x--x--x--x---|
  Fig A    Play through including section 1
e|---------------------------------------------|
B|--3------------------------------------------|
G|--2----------------------0--0----------0-----|
D|--0----------------2--2--0--0--2--2----0--0--|
A|--0----------------2--2--x--x--2--2----x-----|
E|-------------------0--0--3--3--0--0----3-----|
               Section 1                 End Fig A
---------------*----------------------------------*|
--3------------*----------------------------------*|
--2------------*--------------------------0-------*|
--0------------*--2--------x--x--x--x--x--0-------*|
--0------------*--2--------x--x--x--x--x--0-------*|
---------------*--0--------x--x--x--x--x----------*|
  Solo W/ Tremolo
e|------------------------------------------------------------|
B|--15--------15--------15--------15--------------------------|
G|--14b---(14)14b---(14)14b---(14)14b---(14)--14--12----------|
D|----------------------------------------------------14--12--|
A|------------------------------------------------------------|
E|------------------------------------------------------------|

----------------------------------------------------------------|
-15--------15--------15--------15--------------------------15---|
-14b---(14)14b---(14)14b---(14)14b--(14)--------------b(14)14b--|
------------------------------------------14--14--14------------|
----------------------------------------------------------------|
----------------------------------------------------------------|

-------------------------------------------------------------------|
---------------------------8--7------------------------------8--7--|
--(14)/12--------------------------7--------------------9----------|
-----------14--14--14-------------------------7--9-----------------|
-------------------------------------------------------------------|
-------------------------------------------------------------------|

-----------------------------------------------------------|
-----------------------------------------------------------|
----7----------7--9--------9----7-----8--------------------|
-----------------------------------9-----9----9--9---(9)\--|
-----------------------------------------------------------|
-----------------------------------------------------------|

Outro
e|--------------------------------------------------|
B|--------------------------------------------------|
G|--------------9--9--9--9--9--9--9--9--9--9--9--9--|
D|--------9--9--9--9--9--9--9--9--9--9--9--9--9--9--|
A|--------7--7--7--7--7--7--7--7--7--7--7--7--7--7--|
E|--0--0--0--0--0--0--0--0--0--0--0--0--0--0--0--0--|
    .  .  .  .  .  .  .  .  .  .  .  .  .  .  .  .
                AND FIN UP WITH RANDOM SCRAPS
Intro
Riff 1 x 12
Intro W/ Fill
Fig A
Riff 1 x 12
Intro W/Fill
Fig A
Section 1
Solo
Rif 1
Rif 2
Outro
Scraps

| /  slide up
| \  slide down
| h  hammer-on
| p  pull-off
| ~  vibrato
| +  harmonic
| x  Mute note
| .  Palm Mute
======================================================================
Comments