Rage Against The Machine - In My Eyes Chords & Tabs

 

In My Eyes Chords & Tabs

Rage Against The Machine Chords & Tabs

Version: 1 Type: Tab 0 ratings
1 star 2 stars 3 stars 4 stars 5 stars
comments

In My Eyes Tab

          Rage Against The Machine
          In My Eyes (minor threat cover)
          Tabbed by sean(warning136@hotmail.com
          ~=ring
          Drop d tunning
          
          intro
          e-------------------
          b-------------------
          g--9~~~~~~~~--------
          D--9~~~~~~~~--------
          A--7~~~~~~~~--------
          D-------------------
          
          verse 1
          e-------------------
          b-------------------
          g--9-8-7-----7-9----
          D--9-8-7-5-7-7-9----
          A--7-6-5-5-7-5-7----
          D--------5-7--------
          
          verse 2
            "you tell me you like the taste   you just need an excuse"
          e----------------------------------------------------------
          b----------------------------------------------------------
          g----------------------------------5---8---10--------------
          D--5-5-5-5-5-5-5-5-5-5-5-5-5-5-5-5-5-7-8-8-10--------------
          A--5-5-5-5-5-5-5-5-5-5-5-5-5-5-5-5-3-7-6-8-8---------------
          D--5-5-5-5-5-5-5-5-5-5-5-5-5-5-5-5---7---8-----------------
          
          chorus
            "it's in my eyes........"                   "and it doesn't look that way to me"
          e--------------------------------------------------------------------------------------
          b--------------------------------------------------------------------------------------
          b-----------------------------------------------------------7--------------------------
          D--10-12-12-12-12-10-12-12-12-12--7-7--7-9-9----2-2-2-2-2-2-7-(3x)-2-2-2-2-2-2-5~~~~~~~
          A--10-12-12-12-12-10-12-12-12-12--7-7--7-9-9----2-2-2-2-2-2-5------2-2-2-2-2-2-5~~~~~~~
          D--10-12-12-12-12-10-12-12-12-12--7-7--7-9-9----2-2-2-2-2-2--------2-2-2-2-2-2-5~~~~~~~
          
          listen to the cd for the rhythm and timing
[ Tab from: http://www.guitartabs.cc/tabs/r/rage_against_the_machine/in_my_eyes_tab.html ]
Comments