Rage Against The Machine - Im Housin Chords & Tabs

 

Im Housin Chords & Tabs

Rage Against The Machine Chords & Tabs

Version: 4 Type: Tab 0 ratings
1 star 2 stars 3 stars 4 stars 5 stars
comments

Im Housin Tab

Rage Against The Machine
I'm Housin'

By KirK_H@mmeT  NZ

After seeing some shocking tabs (especially for the solo) i decided to perfect it.
Please rate if you think its close


This is the bass riff at the start:
e|-------------------------------|
B|-------------------------------|
G|-------------------------------|
D|-------------------------------|
A|-------------------------------|
E|--0--15-12-11-10-7-6--3h5---0--|

Then this every time:
e|-------------------------------|
B|-------------------------------|
G|-------------------------------|
D|-------------------------------|
A|-------------------------------|
E|--0--15-12-11-10-7-6\-----0-0--|

Verse:
If you dont have a wah peddal then simply bending the strings will have a similar effect.

e|----------------------------|
B|----------------------------|
G|--9b--12b----9b-9b-9b--12b--| 
D|--9b--12b----9b-9b-9b--12b--| 
A|----------------------------| 
E|----------------------------|x8

Bridge:

e|----------------------------|
B|----------------------------|
G|----------------------------|
D|----------------2-2---------|
A|----------------2-2---------|
E|----------------0-0---------|x4

e|--------------------------------------|
B|--------------------------------------|
G|--------------------------------------|
D|--2-2--2-2--2-2--2-2-2-12-------------|
A|--2-2--2-2--2-2--2-2-2-12-------------|
E|--0-0--0-0--0-0--0-0-0-10-------------|x4


Main Riff:
e|---------------------------------------------|
B|---------------------------------------------|
G|---------------------------------------------|
D|---------------------------------------------|
A|----7-7------5---5---------------------------|
E|---------5-7-------7-5-3---------------------|x7

e|---------------------------------------------|
B|---------------------------------------------|
G|---------------------------------------------|
D|-----------------------------2---------------|
A|----7-7------5---5-----------2---------------|
E|---------5-7-------7-5-3-----0---------------|


Verse:
e|----------------------------|
B|----------------------------|
G|--9b--12b----9b-9b-9b--12b--| 
D|--9b--12b----9b-9b-9b--12b--| 
A|----------------------------| 
E|----------------------------|x8
[ Tab from: http://www.guitartabs.cc/tabs/r/rage_against_the_machine/im_housin_tab_ver_4.html ]
Bridge:
e|----------------------------|
B|----------------------------|
G|----------------------------|
D|----------------2-2---------|
A|----------------2-2---------|
E|----------------0-0---------|x4

e|--------------------------------------|
B|--------------------------------------|
G|--------------------------------------|
D|--2-2--2-2--2-2--2-2-2-12-------------|
A|--2-2--2-2--2-2--2-2-2-12-------------|
E|--0-0--0-0--0-0--0-0-0-10-------------|x4

Main Riff:
e|---------------------------------------------|
B|---------------------------------------------|
G|---------------------------------------------|
D|---------------------------------------------|
A|----7-7------5---5---------------------------|
E|---------5-7-------7-5-3---------------------|x7

e|--------------------------------------|
B|--------------------------------------|
G|--------------------------------------|
D|--2-2--2-2--2-2--2-2-2-12-------------|
A|--2-2--2-2--2-2--2-2-2-12-------------|
E|--0-0--0-0--0-0--0-0-0-10-------------|x4


Solo:
e|--------------------------------------------------------------------------|
B|--------------------------------------------------------------------------|
G|---14b15r14-14-12-14---------12-------------------------------------------|
D|---------------------14-12-14--14-12-14-----------------------------------|
A|--------------------------------------------------------------------------|
E|--------------------------------------------------------------------------|

e|--------------------------------------------------------------------------|
B|---15b16r15-15-14-15b16r15-15-14---17b18r17-17b18r17-17b19----------------|
G|--------------------------------------------------------------------------|
D|--------------------------------------------------------------------------|
A|--------------------------------------------------------------------------|
E|--------------------------------------------------------------------------|


Main Riff:
e|---------------------------------------------|
B|---------------------------------------------|
G|---------------------------------------------|
D|---------------------------------------------|
A|----7-7------5---5---------------------------|
E|---------5-7-------7-5-3---------------------|x7

e|----------------------------|
B|----------------------------|
G|----------------------------|
D|----------------2-2---------|
A|----------------2-2---------|
E|----------------0-0---------|x4


Any questions or suggestions email necro_cannible@hotmail.com
Comments