Rage Against The Machine - Im Housin Chords & Tabs

 

Im Housin Chords & Tabs

Rage Against The Machine Chords & Tabs

Version: 4 Type: Bass Tab

Im Housin Bass Tab

ive looked at this song and this is what i think the tab to it is

Rage Against the Machine - Im Housin

Intro

G|------------------------------------------------|
D|------------------------------------------------|
A|------------------------------------------------|
E|-0-15-12-11-10-7-6-3h5-0--15-12-11-10-7-6--0-0--|

Play this bout 6 or 8 times, you can work out the timing on the song

Pre-chorus
[ Tab from: http://www.guitartabs.cc/tabs/r/rage_against_the_machine/im_housin_btab_ver_4.html ]
G|----------------------|
D|--2-2--2-2--2-2--2-2--|
A|----------------------|
E|--0-0--0-0--0-0--0-0--|

G|----------------------------|
D|----------------------------|
A|----------------------------|
E|--12-0-12-0-12-0-12-0-0-15~-| Play bout 4 times

Chorus

G|--------------------|
D|--------------------|
A|--7-7-----5---------|
E|------5h7---7h5-3p0-| Play 4 times, last time play 0 again at the end

this is basically the song, you can work out when to play each bit by listenin to the song

Enjoy