Rage Against The Machine - Freedom Chords & Tabs

 

Freedom Chords & Tabs

Rage Against The Machine Chords & Tabs

Version: 6 Type: Tab 0 ratings
1 star 2 stars 3 stars 4 stars 5 stars
comments

Freedom Tab

Rage Against The Machine
Freedom -Solo
===============================================================
[ Tab from: http://www.guitartabs.cc/tabs/r/rage_against_the_machine/freedom_tab_ver_6.html ]
E-------------------------------------------------------------------|
B-------------------------------------------------------------------|
G-------------------------------------------------------------------|
D--(15)15---14--------------------15---12-----15---17--19--20--19---|
A--------------12---(15)---17---------------------------------------|
E-------------------------------------------------------------------|

E-------------------------------------------------------------------|
B-------------------------------------------------------------------|
G--------------------1917----1917----19(17)-171717---1212(12)-------|
D--17--15--14----1719----1719----1719-------------------------------|
A-------------------------------------------------------------------|
E-------------------------------------------------------------------|

If you dont think its right e-mail corrections to
Rattin21@aol.com
Comments