Rage Against The Machine - Fistfull Of Steel Chords & Tabs

 

Fistfull Of Steel Chords & Tabs

Rage Against The Machine Chords & Tabs

Version: 3 Type: Bass Tab 0 ratings
1 star 2 stars 3 stars 4 stars 5 stars
comments

Fistfull Of Steel Bass Tab

Rage Against The Machine - Fistful Of Steel

Tabbed By Stephen Pang (piequat@hotmail.com)

Intro/Chorus
G|--------------------|
D|--------------------|
A|--------------------|
E|-0h2-2--0h2-2--12\--|

Verse
G|------------------------------|
D|----/4-------------/4---------|
A|--------0-2-3----------0-2-3--|
E|-2------------2-2-------------|

G|------------------|
D|----4-2-----------|
A|--------4--3-2-0--|
E|-2----------------|
[ Tab from: http://www.guitartabs.cc/tabs/r/rage_against_the_machine/fistfull_of_steel_btab_ver_3.html ]
Solo
G|-------------------------------|
D|-------------------------------|
A|-------------------------------|
E|-2-2-0--2--0-2--0-2--0-/5--7h8-|

G|----------------------------|
D|--------------4-2-----------|
A|------------------4--3-2-0--|
E|-2-2-0--2--0----------------|

Ending
G|-------------------------|
D|----------4-3-2---4-3-2--|
A|-------0--------0--------|
E|-0--2--------------------|

G|-------------|
D|-------------|
A|-------------|
E|-0--2-----2--|
Comments