Rage Against The Machine - Fistful Of Steel Chords & Tabs

 

Fistful Of Steel Chords & Tabs

Rage Against The Machine Chords & Tabs

Version: 2 Type: Bass Tab 0 ratings
1 star 2 stars 3 stars 4 stars 5 stars
comments

Fistful Of Steel Bass Tab

rage aginst the machine-Fistful of steel

name: curdan
e-mail: Bassplayer@teleport.com


intro
G|---------------------|
D|---------------------|
A|---------------------|
E|--0--2-2---0--2-2----|

                                    x7
G|-----------------------------------|
D|-----------------------------------|
A|-----------------------------------|
E|--0h2-2---0h2-2--0---14\-----------|


G|---------------------|
D|---------------------|
A|---------------------|
E|--0--2-2---0--2-2----|


                                    x14
G|--------------------------------------|
D|--------------------------------------|
A|-------------0--2-3-------------------|
E|---2--2/14~---------------------------|

                           little variation
G|------------------------------------|
D|----------/4~--4--2-----------------|
A|--------------------4-3-2-----------|
E|---2--2--------------------5--------|

                                    x5
G|-----------------------------------|
D|-----------------------------------|
A|-----------------------------------|
E|--0h2-2---0h2-2--0---14\-----------|


G|--------------------------------|
D|--------------------------------|
A|--------------------------------|
E|--0--2-2---0--2-2-----2---(2)---|

                                    x10
G|--------------------------------------|
D|--------------------------------------|
A|-------------0--2-3-------------------|
E|---2--2/14~---------------------------|

[ Tab from: http://www.guitartabs.cc/tabs/r/rage_against_the_machine/fistful_of_steel_btab_ver_2.html ]
                           little variation
G|------------------------------------|
D|----------/4~--4--2-----------------|
A|--------------------4-3-2-----------|
E|---2--2--------------------5--------|

                                   x7
G|-----------------------------------|
D|-----------------------------------|
A|-----------------------------------|
E|--0h2-2---0h2-2--0---14\-----------|


G|---------------------|
D|---------------------|
A|---------------------|
E|--0--2-2---0--2-2----|


guitar solo                     x3
G|-------------------------------|
D|------------------2-4----------|
A|-----------2-3-4---------------|
E|---2--5-5----------------------|


G|---------------------------|
D|-----------4--2------------|
A|-----------------4-3-2-----|
E|---2--5-5------------------|

                                x3
G|-------------------------------|
D|------------------2-4----------|
A|-----------2-3-4---------------|
E|---2--5-5----------------------|


G|---------------------------|
D|-----------4--2------------|
A|-----------------4-3-2-----|
E|---2--5-5------------------|

                       x3
G|--------------------------|
D|----------4-3-2----4-3-2--|
A|-------0--------0---------|
E|-0--2---------------------|


G|-----------|
D|-----------|
A|-------0---|
E|-0--2------|


now you slide you finger(s) up and down the E string
and then evetualy go down to the G

                       x13
G|---------------------------|
D|----------4-3-2----4-3-2---|
A|-------0--------0----------|
E|-0--2----------------------|

end
G|-------------------|
D|-------------------|
A|-------------------|
E|-0--2-----2---(2)--|

   vibrato     ~
   slide up    /
   slide down  \
   hammer on   h
========================================
hope you enjoy my tab
Comments