Rage Against The Machine - Calm Like A Bomb Chords & Tabs

 

Calm Like A Bomb Chords & Tabs

Rage Against The Machine Chords & Tabs

Version: 1 Type: Bass Tab 1 rating
1 star 2 stars 3 stars 4 stars 5 stars
comments

Calm Like A Bomb Bass Tab

Calm Like A Bomb
Rage Against The Machine

Intro/Solo
G :----0-2---------|----0---0-------|----------------|----------------|
D :2-4-------4-2-0-|2-4-------2-0---|----2-4---0-----|--0-2---2-------|
A :----------------|--------------4-|0-4---------4-2-|4---------4-2-1-|
E :----------------|----------------|----------------|----------------|

G :----------------|----------------|----0-2---------|----0---0-------|
D :----------0-----|2---0---4-0-2---|2-4-------4-2-0-|2-4-------2-0---|
A :------2-----2-4-|--4-------------|----------------|--------------4-|
E :--2-------------|----------------|----------------|----------------|

G :-----|
D :-----|
A :--0--|
E :-----|


Riff 1
G :----------------|-----------------|
D :----------------|-----------------|
A :----------------|-----------------|
E :7-------7-5-7---|10\------5-------|


Riff 2
G :----------------|-----------------|
D :----------------|-----------------|
A :----------------|-----------------|
E :7-------7-5-7---|7-5-7---7-5-7----|
[ Tab from: http://www.guitartabs.cc/tabs/r/rage_against_the_machine/calm_like_a_bomb_btab.html ]
Riff 3
G :----------------|----------------|------------------|
D :----------------|----------------|------------------|
A :----------------|----------------|--5--5------------|
E :5-7---------5-7-|5-7-----7-----7-|------------------|


Riff 4
G :-----------------|-----------------|-----------------|
D :-----------------|-----------------|-----------------|
A :--------5--------|------5----------|--------5--------|
E :5-7-x--------7---|-------------7---|5-7-x--------7---|

G :----------------|
D :----------------|
A :----------------|
E :5-------5-7-----|

Solo Riff
G :----------------|----------------|----------------|----------------|
D :----------------|----------------|----------------|----------------|
A :7-----7-----7---|7---7---7-5-5-5-|7-----7-----7---|7-5-7-5---5---5-|
E :--0-0---0-0---0-|--0---0---------|--0-0---0-0---0-|--------0---0---|


RIFF 1 (x8)     RIFF 2 (x4)     RIFF 4 (x4)
RIFF 2 (x4)     RIFF 1 (x4)     rest until end
RIFF 1 (x4)     RIFF 3 (x4)
RIFF 3 (x4)     RIFF 4 (x4)     
RIFF 4 (x2)     SOLO RIFF (x1)      
RIFF 1 (x4)     RIFF 1 (x8) 

ramlaile@visir.is
Comments