Rage Against The Machine - Bulls On Parade Chords & Tabs

 

Bulls On Parade Chords & Tabs

Rage Against The Machine Chords & Tabs

Version: 5 Type: Tab 1 rating
1 star 2 stars 3 stars 4 stars 5 stars
comments

Bulls On Parade Tab

   
Bulls On Parade by Rage Against the Machine
Tabbed by Joe

This is an awesome song and definitely worth learning.All the other tabs I have read are wrong
because for the intro they use an F sharp instead of an F. This is my first tab so go 
on me.

Standard Tuning

INTRO
F
-------------------------------------------------------|
-------------------------------------------------------|
-------------------------------------------------------|
-----3-----3--------3-----3--------3--------3----------|
-------------------------------------------------------|
---------------1---------------1------------------1----|

The next part is with a Wah Wah pedal.
Push it down on every down stroke,

-------------------------------------------|
-------------------------------------------|
-------------------------------------------|
---3---3---x---x---3---3---x-x-x-x-x-x-----|
---3---3---x---x---3---3---x-x-x-x-x-x-----|
---1---1---x---x---1---1---x-x-x-x-x-x-----|
   ^ v ^ V ^ V ^ V ^ V ^ V ^V^V^V^V^V^

Verse

This is played with the Wah Wah in the down position
[ Tab from: http://www.guitartabs.cc/tabs/r/rage_against_the_machine/bulls_on_parade_tab_ver_5.html ]
------------------------------------------------------------|
------------------------------------------------------------|
--------1---3p0---------------------------------------------|
-1--3----------h3----1--2-----------------------------------|
------------------------------------------------------------|
------------------------------------------------------------|

Chorus
Rally round the family...

------------------------------------------------------------|
------------------------------------------------------------|
------------------------------------------------------------|
------------------------------------------------------------|
---5-4-4-4-4-4-4-4------last part---5-5-4-4-4-4-4-----------|
---3-2-0-2-0-2-0-2------------------3-3-2-2-0-2-2-----------|

Build up before scratch bit
Use Wah Wah same as before

-------------------------------------------|
-------------------------------------------|
-------------------------------------------|
---8---8---x---x---8---8---x-x-x-x-x-x-----|
---8---8---x---x---8---8---x-x-x-x-x-x-----|
---6---6---x---x---6---6---x-x-x-x-x-x-----|
   ^ v ^ V ^ V ^ V ^ V ^ V ^V^V^V^V^V^

For the scratch part you need a guitar with a three way pickup selector switch.
Volume settings are Rythym:0 Treble:10. Flick your switch on and off while scratching 
strings
with your fingernails/pick to give the added DJ effect. You have to get it just right 
it to
sound good.

The last parts of the song are the first Wah Wah part (F) followed by the intro.

Email me at on_air40@hotmail.com
Comments