Rage Against The Machine - Bulls On Parade Chords & Tabs

 

Bulls On Parade Chords & Tabs

Rage Against The Machine Chords & Tabs

Version: 4 Type: Tab 1 rating
1 star 2 stars 3 stars 4 stars 5 stars
comments

Bulls On Parade Tab

   
The song is in regular E A D G B E  Tuning

INTRO
dont let the d notes ring
-------------------------------------------------------|
-------------------------------------------------------|
-------------------------------------------------------|
-----4-----4--------4-----4--------4-------------------|
-------------------------------------------------------|
---------------2---------------2---------2-------------|

part 1
this is played with a Wah Wah pedel.
^ = pedal down (treble)
V = pedal up   (bass)
---------------------------------------------|
---------------------------------------------|
---------------------------------------------|
----4---4---x---x---4---4---x-x-x-x-x-x------|
---4---4---x---x---4---4---x-x-x-x-x-x-------|
---2---2---x---x---2---2---x-x-x-x-x-x-------|
   ^ v ^ V ^ V ^ V ^ V ^ V ^V^V^V^V^V^

this is the last part of the riff be for it goes into the next part
------------------------------------------------------------|
------------------------------------------------------------|
------------------------------------------------------------|
---4--4-----------4--4--------------------------------------|
---4--4-----------4--4--------------------------------------|
---2--2---0--0---2--2--0-0-0-0-0-0--------------------------|

part 2
this part is played with the wah in the down possition but not off
------------------------------------------------------------|
------------------------------------------------------------|
------------------------------------------------------------|
------------------------------------------------------------|
----------0---0--2-0-0--------------------------------------|
--0--2-------------------2-----2--0----0--1-----------------|
[ Tab from: http://www.guitartabs.cc/tabs/r/rage_against_the_machine/bulls_on_parade_tab_ver_4.html ]
part 3
any not with ( ) around it means you dont have to play it but i do.
-------------------------------------------------------------|
-------------------------------------------------------------|
-------------------------------------------------------------|
-------------------------------------------------------------|
4--5--4--x---4--(4)----4--4--x--4---(4)----4--5--4--x---4----|
2--3--2--x---2--(2)----0--2--x--2---(2)----2--3--2--x---2----|

------------------------------------------------------------|
------------------------------------------------------------|
------------------------------------------------------------|
------------------------------------------------------------|
(4)----5-5-4-4-4-4------------------------------------------|
(2)----3-3-2-2-0-2------------------------------------------|

he plays this twice i think right before he goes in to the scratching
------------------------------------------------------------|
------------------------------------------------------------|
------------------------------------------------------------|
-4-4-x-x-4-4-x-x-x-x-x-x------------------------------------|
-2-2-x-x-2-2-x-x-x-x-x-x------------------------------------|
------------------------------------------------------------|

anyone who has a guitar with dual volumes and a 3 way selecter can do the scratching.
you have to turn one volume all the way down and keep the other up this will allow your
selecter to act like a kill switch,  then as you rubing your hand across the strings to
make the scratch sound you kill it and start it with your selecter.  You have to time
the two perfectly to get that perfect dj sound but remember most of the rethem is in the
selecter (your kill switch)

the rest of the song is just part 1 followed by the intro

any comments questions e-mail me at chee_bahawk@hotmail.com
Comments