Rage Against The Machine - Bulls On Parade Chords & Tabs

 

Bulls On Parade Chords & Tabs

Rage Against The Machine Chords & Tabs

Version: 1 Type: Tab 1 rating
1 star 2 stars 3 stars 4 stars 5 stars
comments

Bulls On Parade Tab

Ok, this is the REAL Bulls On Parade. Argue if you will, but this one sounds
ultimate. This Bad Ass Rage Song uses Dropped D tuning (DADGBE). If you don't
have an electric tuner, the 7th fret method should do just fine. I only use
a Yamaha Overdrive Pedal while playing this song, you should be able to get
one for $60 used, $100 new.

Intro w/ Heavy Distortion.


------------------------------------------------------------------------
------------------------------------------------------------------------
------------------------------------------------------------------------
---7-------7--7------7--7-----------------------------------------------
---5---0---5--5--0---5--5--0--------------------------------------------
---0---0---0--0--0---0--0--0--------------------------------------------

Then, switch Pedal OFF and play this 4 times:

------------------------------------------------------------------------
------------------------------------------------------------------------
------------------------------------------------------------------------
------------------------------------------------------------------------
-------2---x-----2---x--x---x--x----------------------------------------
-------2---x-----2---x--x---x--x----------------------------------------

Then switch Pedal ON and play the above another 4 times.

Main Riff: I love this riff, it kicks ass. Repeat 4 times and another 4 
times after the chorus.    Pedal ON

------------------------------------------------------------------------
------------------------------------------------------------------------
------------------------------------------------------------------------
------------------------------------------------------------------------
-0---2------5---5---7---5---0---2--2--2--0--0--1------------------------
-0---2------5---5---7---5---0---2--2--2--0--0--1------------------------

Chorus  Pedal ON
[ Tab from: http://www.guitartabs.cc/tabs/r/rage_against_the_machine/bulls_on_parade_tab.html ]
------------------------------------------------------------------------
------------------------------------------------------------------------
------------------------------------------------------------------------
------------------------------------------------------------------------
------3---2---2---1--2--2--2-3-2-2-2-2-2-2--0--2------------------------
------3---2---2---1--2--2--2-3-2-2-2-2-2-2--0--2------------------------

Pre Solo Pedal On  Repeat 4 times

------------------------------------------------------------------------
------------------------------------------------------------------------
------------------------------------------------------------------------
------------------------------------------------------------------------
---------7---x----7---x--x---x--x---------------------------------------

Solo: I can't put this on tab. Morello turns up the tone just before this and
rubs the strings between the pickups with his left hand. With his right, he
is flicking the toggle switch in a fast motion. Have fun trying!

Post Solo Pedal Off

------------------------------------------------------------------------
------------------------------------------------------------------------
------------------------------------------------------------------------
------------------------------------------------------------------------
---2--x---2--x--x--x--x-------------------------------------------------
---2--x---2--x--x--x--x-------------------------------------------------

Outro Pedal ON    Repeat 8 times

------------------------------------------------------------------------
------------------------------------------------------------------------
------------------------------------------------------------------------
--7------7---7------7--7------------------------------------------------
--5------5---5------5--5------------------------------------------------
--0---0--0---0--0---0--0---0--------------------------------------------

To get the rythem, listin to the song or get the MIDI at www.hotmidis.com

Any Questions? E-Mail me at 



Comments