Rage Against The Machine - Born Of A Broken Man Chords & Tabs

 

Born Of A Broken Man Chords & Tabs

Rage Against The Machine Chords & Tabs

Version: 4 Type: Tab 0 ratings
1 star 2 stars 3 stars 4 stars 5 stars
comments

Born Of A Broken Man Tab

   
Band:Rage Against the Machine 
   Song:Born of a Broken Man 
   Album:Battle of Los Angeles 
   Send any corrections or comments to sl_mcclure@hotmail.com 
   Thanks to Tom for this one. 

   Dropped-D Tuning 

   Verse: 
   e---------------------------------------------------------- 
   B-------------------------------------------------10-10-10- 
   G-2-2-2-2-2-2-2-1-1-1-/4-4-4-0-0-0-0-0-0-0-4-2-2--/7--7--7- 
   D-0-0-0-0-0-0-0-0-0-0--0-0-0-0-0-0-0-0-0-0-0-0-0---0--0--0- 
   A-0-0-0-0-0-0-0-0-0-0--0-0-0-0-0-0-0-0-0-0-0-0-0---0--0--0- 
   D-0-0-0-0-0-0-0-0-0-0--0-0-0-0-0-0-0-0-0-0-0-0-0---0--0--0- 

   e---------------------------------------- 
   B-9-9-9-/12-12-12-8-8-8-8-8-8-8-12-10-10- 
   G-7-7-7---7--7--7-7-7-7-7-7-7-7--7--7--7- 
   D-0-0-0---0--0--0-0-0-0-0-0-0-0--0--0--0- 
   A-0-0-0---0--0--0-0-0-0-0-0-0-0--0--0--0- 
   D-0-0-0---0--0--0-0-0-0-0-0-0-0--0--0--0- 
[ Tab from: http://www.guitartabs.cc/tabs/r/rage_against_the_machine/born_of_a_broken_man_tab_ver_4.html ]
   Chorus: 
   e-------------------------------------- 
   B-------------------------------------- 
   G-------------------------------------- 
   D-0-5b-3-0-7-0-3-0-x-x-x-x-3-0-7-0-3-0- 
   A-0-5b-3-0-7-0-3-0-x-x-x-x-3-0-7-0-3-0- 
   D-0-5b-3-0-7-0-3-0-x-x-x-x-3-0-7-0-3-0- 

   Bridge: 
   e----------------------- 
   B----------------------- 
   G-------------5v--5-7v-- 
   D----------------------- 
   A----------------------- 
   D-0-0-0-0-0-0----------- 

   Lyrics: 
   My fears hunt me down 
   Capturing my memories 
   The frontier of loss 
   They try to escape across the street where 
   Jesus stripped bare 
   And raped the spirit he was supposed to nurture 
   In the name of my in the name of my 

   Born of a broken man 
   But not a broken man 
   Born of a broken man 
   Never a broken man 

   That's the first verse and chorus, you get the idea 
Comments