Rage Against The Machine - Born Of A Broken Man Chords & Tabs

 

Born Of A Broken Man Chords & Tabs

Rage Against The Machine Chords & Tabs

Version: 2 Type: Tab 1 rating
1 star 2 stars 3 stars 4 stars 5 stars
comments

Born Of A Broken Man Tab

#-----------------------------------------------------------------------------#
#-- File created with Instab - http://www.pconline.com/~smcarey/instab.html --#
#-----------------------------------------------------------------------------#

Author/Artist: Rage against the machine
Title: Born of a Broken Man
Album: Battle for L.A
Transcribed by: Matt B
Email: matt_bch@hotmail.com

Tune down to Drop-D tuning (DADGBE) for this one.
  For Riff A use a chorusy/spacey sounding effect
  For Riffs B and C use a heavy distortion effect. 
  When you play four repeats of Riff B you can insert this line in place of the 

3rd repeat(if that makes any sense) Listen to the original to hear what I mean
 When you play Riff C for the middle pre-outro section be aware that it needs a
Bass part on the second playing for the full effect, before it launches back 
into the chorus Riff (Riff B).This is my first attempt at Tabbing somthing for 
the internet and I hope you like it. I havent included any words so you'l
have to listen to the record to piec all the riffs together in the right order.
Also the  A Riff is slightly incorrect in its rhythm so listen to get it dead on
.

----------------------------|-------------------------|-----------------------
----------------------------|-------------------------|-----------------------
-14---14---14--14-14--14--14|13---13---13--13-16-16-14|12---12---12--12-12----
-0----0----0---0--0---0---0-|0----0----0---0--0--0--0-|0----0----0---0--0-----
----------------------------|-------------------------|-----------------------
----------------------------|-------------------------|-----------------------
 Riff A:Verse + Intro Riff. At the end of the riff slide the Fret 2 A back    

------|----------||-----------------------------------------------------------
------|----------||-----------------------------------------------------------
-12-12|4---2--2-*||-/14-------------------------------------------------------
-0--0-|0---0--0-*||-----------------------------------------------------------
------|----------||-----------------------------------------------------------
------|----------||-----------------------------------------------------------
 up to the octave one to start the riff again(only for repeats though)        
[ Tab from: http://www.guitartabs.cc/tabs/r/rage_against_the_machine/born_of_a_broken_man_tab_ver_2.html ]
----------------------|---------------------||--------------------------------
----------------------|---------------------||--------------------------------
----------------------|--------------------*||--------------------------------
-0--6-5-3--0--7-0--3-0|xx-xx-3-0--7-0--3-0-*||--------------------------------
-0--6-5-3--0--7-0--3-0|xx-xx-3-0--7-0--3-0--||--------------------------------
-0--6-5-3--0--7-0--3-0|xx-xx-3-0--7-0--3-0--||--------------------------------
 Riff B:Chorus(mainly)                                                        

----------------------|---------------------||--------------------------------
----------------------|---------------------||--------------------------------
----------------------|--------------------*||--------------------------------
-0--6-5-3--0--7-0--3-0|xx-xx-3-0--7-0--3-0-*||--------------------------------
----------------------|xx-xx----------------||--------------------------------
----------------------|xx-xx----------------||--------------------------------
 Riff C:Middle Pre-Outro bit.Played twice only with a Bass part the 2nd time  

----------------------|-------------------||----------------------------------
----------------------|-------------------||----------------------------------
----------------------|----------2b3-r2---||----------------------------------
-0--6-5-3--0--7-0--3-0|xx-xx-3-0----------||----------------------------------
-0--6-5-3--0--7-0--3-0|xx-xx-3-0----------||----------------------------------
-0--6-5-3--0--7-0--3-0|xx-xx-3-0----------||----------------------------------
 Alternate chorus riff (for every 3rd Riff B repeat - see above blurb)        

--------------------------x3------------------------|-------------------------
--------------------------||------------------------|-------------------------
-------------------------*||------------------------|-------------------------
-0-0-0-0-0-0-0-10--10h12-*||-0--6-5-3--0--7-0--3-0--|-------------------------
-0-0-0-0-0-0-0------------||-0--6-5-3--0--7-0--3-0--|-------------------------
-0-0-0-0-0-0-0------------||-0--6-5-3--0--7-0--3-0--|-------------------------
 Final riff variant: Attached to and around Rff B.Check where on the record   

--------------------------------|-8-------------------------------------------
--------------------------------|-10------------------------------------------
--------------------------------|-7-------------------------------------------
--------------------------------|-0-------------------------------------------
------------------------0--3-4-5|-0-------------------------------------------
-0-0--4--4--5--5--6--6----------|-0-------------------------------------------
 Alternte Ending:If youre in a happy mood, end the song like this!!           

Comments