Rage Against The Machine - Born Of A Broken Man Chords & Tabs

 

Born Of A Broken Man Chords & Tabs

Rage Against The Machine Chords & Tabs

Version: 1 Type: Tab 3 ratings
1 star 2 stars 3 stars 4 stars 5 stars
comments

Born Of A Broken Man Tab

   
Band:	Rage Against the Machine
Title:	Born Of A BroKen Man
Cd: 	Battle of Los Angeles (1999)


My First Time Tabbing Anything, If you have any comments Drop me a line.
Raging_fiend@hotmail.com

Intro- No distortion - Strumming time and pattern is easy enough to
                       Figure out-Play twice

E----------------------------------------------------------------
B----------------------------------------------------------------
G-14--(X7)--13--(X4)--16-(X2)--14-(X1)--12--(X7)--4--(X1)--2--(X2)/14*
D-0---------0---------0-------0--------0----------0--------0------
A----------------------------------------------------------------
E----------------------------------------------------------------
 *Only slide back up to 14 a the start of the second time, after the second
  time hit the distortion petal, and it should bring in the humming sound 
  that Tom makes*

Chorus(A)- Play with a lil more than average distortion-Play two times

E----------------------------------
B----------------------------------
G----------------------------------
D-0h6-5-0-7-0-3-0-XXXX-3-0-7-0-3-0-
A-0h6-5-0-7-0-3-0-XXXX-3-0-7-0-3-0-
E-0h6-5-0-7-0-3-0-XXXX-3-0-7-0-3-0-
[ Tab from: http://www.guitartabs.cc/tabs/r/rage_against_the_machine/born_of_a_broken_man_tab.html ]
Chorus(B)
*On the third time play this
E----------------------------------
B----------------------------------
G----------------------------------
D-0h6-5-0-7-0-3-0-XXXX-3-0---------
A-0h6-5-0-7-0-3-0-XXXX-3-0---------
E-0h6-5-0-7-0-3-0-XXXX-3-0-7*------

Solo....I Guess - Keep Distortion-Play Twice
E----------------------------------
B----------------------------------
G----------------------------------
D-0h6-5-0-7-0-3-0-XXXX-3-0-7-0-3-0-
A----------------------------------
E----------------------------------

Out-tro(A) -Keep Distortion On
E-------------------------
B-------------------------
G-------------------------
D-0-0-0-0-0-0-0-10-10h12--
A-------------------------
E-------------------------

Out-tro(B)
E----------------
B----------------
G----------------
D-0h6-5-0-7-0-3-0
A-0h6-5-0-7-0-3-0
E-0h6-5-0-7-0-3-0


Intro		(X2)
Chorus A 	(X2)
Chorus B 	(X1)
Chorus A 	(X1)
Intro		(X2)
Chorus A 	(X2)
Chorus B 	(X1)
Chorus A 	(X1)
Intro		(X3)
Chorus A 	(X2)
Chorus B 	(X1)
Chorus A 	(X1)
Out-tro A	(X3)
Out-tro B	(X1)
Intro		(X2)
Solo		(X2)
Chorus A 	(X2)
Chorus B 	(X1)
Chorus A 	(X1)
Out-tro A	(X3)
Out-tro B	(X1)
Out-tro A	(X3)
Out-tro B	(X1)
Comments