Rage Against The Machine - Born As Ghosts Chords & Tabs

 

Born As Ghosts Chords & Tabs

Rage Against The Machine Chords & Tabs

Version: 3 Type: Bass Tab 0 ratings
1 star 2 stars 3 stars 4 stars 5 stars
comments

Born As Ghosts Bass Tab

Album:battle of los angeles.
Title:Born as ghosts.
Written by:Rage against the machine.
Tabbed by:Naked flame bass

Veuse
g-----------------------------------
d-----------------------------------
a-5-------5-------5-------5-------5-
e---0-0-0-----------0-0-0-----------
[ Tab from: http://www.guitartabs.cc/tabs/r/rage_against_the_machine/born_as_ghosts_btab_ver_3.html ]
Chorus
g-------------------
d-------------------
a-----5^1/2-------5-
e-0-0-------0-0-0---

Bridge
g---------------------------------------------------
d-12/14-12/14-12/14-12/14---------12/14-12/14-12/14-Play 12 but not 14
a-------------------------7-5-----------------------
e-----------------------------7-0-------------------

Thats it.I think it's right but check another site if you think it's wrong.


Comments