Rage Against The Machine - Beautiful World Chords & Tabs

 

Beautiful World Chords & Tabs

Rage Against The Machine Chords & Tabs

Version: 2 Type: Tab 0 ratings
1 star 2 stars 3 stars 4 stars 5 stars
comments

Beautiful World Tab

HERE IS THE TAB FOR RATM'S COVER OF THE SONG BEAUTIFUL WORLD.THE VERSION TABBED BY TIM MILLARD IS 
CORRECT AND YOU CAN PLAY IT THAT WAY BUT THIS IS HOW TOM MORELLO PLAYS IT.HE USES HIS IBANEZ ES-335 STYLE GUITAR 
THIS AND BECAUSE HIS AMP IS ALWAYS ON THE GAIN CHANNEL , YOU WILL HAVE TO TURN THE GUITAR VOLUME DOWN (I PLAY A STRAT AND MY VOLUME HAS TO BE TURNED TO 1).
HERE IS THE TAB:

INTRO/VERSE RIFF:

E-0---0---0---0----0---0---0---0----0---0---0---0----0---0---0---|
B-0---0---0---0----0---0---0---0----0---0---0---0----0---0---0---|
G-5---5---5---5----7---7---7---7----5---5---5---5----7---7---7---|
D-7-7-7-7-7-7-7-7--5-5-5-5-5-5-5-5--3-3-3-3-3-3-3-3--5-5-5-5-5-5-|
A---0---0---0---0----0---0---0---0----0---0---0---0----0---0---0-|
E----------------------------------------------------------------|
[ Tab from: http://www.guitartabs.cc/tabs/r/rage_against_the_machine/beautiful_world_tab_ver_2.html ]
E-0--------------------------------------------------------------|
B-0--------------------------------------------------------------|
G-7--------------------------------------------------------------|
D-5-5------------------------------------------------------------|
A---0------------------------------------------------------------|
E----------------------------------------------------------------|
REPEAT THAT A FEW TIMES AND THEN THIS :
CHORUS PART:

E-0---0---0---0----0---0---0---0----0---0---0---0----------------|
B-0---0---0---0----0---0---0---0----0---0---0---0----------------|
G-5---5---5---5----7---7---7---7----5---5---5---5----10--10--10--|
D-7-7-7-7-7-7-7-7--5-5-5-5-5-5-5-5--7-7-7-7-7-7-7-7--7-7-7-7-7---|
A---0---0---0---0----0---0---0---0----0---0---0---0--------------|
E----------------------------------------------------------------|

E--------0---0---0---0----0--------------------------------------|
B--------0---0---0---0----0--------------------------------------|
G---10---5---5---5---5----7--------------------------------------|
D-7-7-7--7-7-7-7-7-7-7-7--5--------------------------------------|
A----------0---0---0---0-----------------------------------------|
E----------------------------------------------------------------|

OKAY . I HOPE YOU CAN MAKE SENSE OF THAT BUT THAT'S ALL THE PARTS IN THE SONG .
FIONNMCGUIRE@IOL.IE
Comments