Rage - Higher Than The Sky Chords & Tabs

 

Higher Than The Sky Chords & Tabs

Rage Chords & Tabs

Version: 2 Type: Tab 0 ratings
1 star 2 stars 3 stars 4 stars 5 stars
comments

Higher Than The Sky Tab

   
"Higher than the sky"
(Rage, End of all days)

Transcripted by Marco Grewenig (grewe@studcs.uni-sb.de)

Sorry, aber da ich nicht das absolute Genie beim Aufschreiben von Takten
bin, sind wahrscheinlich einige Taktstriche falsch gesetzt. Hoert euch
deshalb den Song einfach ein paarmal an, dann muesstet ihr wissen
was ich mit dem gekritzel meine.
Zum Thema Powercords: Ich glaub einen RAGEsong nur mit Powercords zu spielen,
ist wie einen Pentium nur mit Windows zu betreiben.
Die folgenden TABs sind also nur ein Grundgeruest des Songs.
Wenn jemand die original TABs haben sollte, oder ein paar Verbesserungs-
vorschlaege hat, mailt an grewe@studcs.uni-sb.de.
Ich bin uebrigens auf der Suche nach allen Rage, Blind Guardian, Iced Earth,
Running Wild, Stratovarius, Timo Tolkki, Nevermore, etc. TABS, die existieren. Also, mailt mir.
Watch out for Grewe's Homepage... http://fsinfo.cs.uni-sb.de/~grewe

Tune all strings down 1 step!

+ = blocked
H = Hammering
P = Pulling
* = harmonie

(Intro)
||-----------------------|--------------------||
||---12--12----11--------|--7--7----9---------||
||*--9---9-----9---------|--6--6----6--------*||
||*--9---9-----8---------|--4--4----6--------*||
||-----------------------|--------------------||
||-----------------------|--------------------||


(Break I)
   +        +        +        + + +
|------------------------------------------|
|------------------------------------------|
|----6--------4--------3-------------------|
|----6--------4--------3-------------------|
|----4--------2--------1------------1------|
|--0--------0--------0--------2-2-3-2------|

    + +        +        +        + + +
||---------------------------------------------||
||---------------------------------------------||
||*-----6--------4--------3-------------------*||
||*-----6--------4--------3-------------------*||
||------4--------2--------1------------1-------||
||--0-0--------0--------0--------2-2-3-2-------||

   + +
|---------------|
|---------------|
|------4--------|
|------4--------|
|------2--------|
|--0-0----------|


(Verse)
       + +    + +      + +    + +    +    + 
||----------------|-------------------------|
||----------------|-------------------------|
||*-6------6------|-6------6------6----6----|
||*-6------6------|-4------4------4----4----|
||--4--4-4-4--4-4-|-4--4-4-4--4-4-4--4-4--4-|
||----------------|-----|-------------------|

     + +    + +      + +    + +    +    +
|---------------|-------------------------|
|---------------|-------------------------|
|-6------6------|-------------------------|
|-6------6------|-------------------------|
|-4--4-4-4--4-4-|-1------1------1----1----|
|---------------|-2--2-2-2--2-2-2--2-2--2-|

     + +    + +      + +    + +    +    +    
|---------------|-------------------------|
|---------------|-------------------------|
|---------------|-------------------------|
|---------------|-------------------------|
|-4------4------|-4------4------4----4----|
|-5--5-5-5--5-5-|-7--7-7-7--7-7-7--7-7--7-|

     + +    + +      + +    + +    + +  +
|---------------|--------------------------||
|---------------|--------------------------||
|-2------3------|-6------6------6---------*||
|-2------3------|-6------6------6---------*||
|-0--0-0-1--1-1-|-4--4-4-4--4-4-4--4-4--4--||
|---------------|--------------------------||


(Break II)
       + +    + +      + +    + +    +    +
||----------------|-------------------------|
||----------------|-------------------------|
||*-9------9------|-9------9------9----9----|
||*-9--9-9-9--9-9-|-8--8-8-8--8-8-8--8-8--8-|
||----------------|-------------------------|
||----------------|-------------------------|
[ Tab from: http://www.guitartabs.cc/tabs/r/rage/higher_than_the_sky_tab_ver_2.html ]
      + +     + +       +  +      +  +      +      +
|-----------------|------------------------------------||
|-----------------|------------------------------------||
|-----------------|-----------------------------------*||
|-11------11------|-11--------11--------11-----11-----*||
|-9---9-9-9---9-9-|-11--11-11-11--11-11-11--11-11--11--||
|-----------------|------------------------------------||


Break II


(Pre-Chorus)
|-----------|-----------|--------------|--------------|
|-----------|-----------|--------------|--------------|
|-11--------|-13--------|--------------|-------4------|
|-10--------|-14--------|-4--4--4------|-2--4--4------|
|-9---------|-11--------|-4--4--4------|-2--4--2------|
|-----------|-----------|-2--2--2------|-0--2---------|


(Chorus)
||-----------|----------|----------|----------|
||-----------|----------|----------|----------|
||*-6--------|-4--------|----------|-6--------|
||*-6--------|-4--------|-4--------|-6--------|
||--4--------|-2--------|-4--------|-4--------|
||-----------|----------|-2--------|----------|

                           + +    + +          H P *     P
|----------|----------|--------------------|----------------||
|----------|----------|-5------5------5----|----------------||
|-6--------|-4--------|-4------4------4----|---------------*||
|-6--------|-4--------|-2--2-2-2--2-2-2----|-------4-------*||
|-4--------|-2--------|--------------------|-4-7-4-----7-4--||
|----------|----------|--------------------|----------------||


Break II


Break I


Verse


Break II


Pre-Chorus


Chorus


(Rhythm w\ Solo)
                         H P *      
|--------------------|---------------|
|-5------5------5----|---------------|
|-4------4------4----|---------------|
|-2------2------2----|-------4-------|
|--------------------|-4-7-4---------|
|--------------------|---------------|

                         H P *     P 
|--------------------|---------------|
|-5------5------5----|---------------|
|-4------4------4----|---------------|
|-2------2------2----|-------4-------|
|--------------------|-4-7-4-----7-4-|
|--------------------|---------------|

                         H P *      
|--------------------|---------------|
|-5------5------5----|---------------|
|-4------4------4----|---------------|
|-2------2------2----|-------4-------|
|--------------------|-4-7-4---------|
|--------------------|---------------|

|----------|----------|----------|----------|
|----------|----------|----------|----------|
|-6--------|-4--------|----------|-6--------|
|-6--------|-4--------|-4--------|-6--------|
|-4--------|-2--------|-4--------|-4--------|
|----------|----------|-2--------|----------|

                           + +    + +    + +    +    +
|----------|----------|-----------------------------------|
|----------|----------|-5------5------5------5----5----5--|
|-6--------|-4--------|-4------4------4------4----4----4--|
|-6--------|-4--------|-2--2-2-2--2-2-2--2-2-2--2-2--2-2--|
|-4--------|-2--------|-----------------------------------|
|----------|----------|-----------------------------------|

|----------|----------|----------|----------|
|----------|----------|----------|----------|
|-6--------|-4--------|----------|-6--------|
|-6--------|-4--------|-4--------|-6--------|
|-4--------|-2--------|-4--------|-4--------|
|----------|----------|-2--------|----------|

|----------|----------|
|----------|----------|
|-6--------|-4--------|
|-6--------|-4--------|
|-4--------|-2--------|
|----------|----------|


Break II


Break I (here Solo ends)


Pre-Chorus


Chorus


1,5 x Break II


(end)
     + +    + +      + +    + +    +    +
|---------------|-------------------------|
|---------------|-------------------------|
|-9------9------|-9------9------9----9----|
|-9--9-9-9--9-9-|-8--8-8-8--8-8-8--8-8--8-|
|---------------|-------------------------|
|---------------|-------------------------|

                         H P *     P 
|--------------------|---------------|
|-5------5------5----|---------------|
|-4------4------4----|---------------|
|-2------2------2----|-------4-------|
|--------------------|-4-7-4-----7-4-|
|--------------------|---------------|

|------------------------|
|--5-------5-------5-----|
|--4-------4-------4-----|
|--2-------2-------2-----|
|-(2)-----(2)-----(2)----|
|-(0)-----(0)-----(0)----|
Comments