Raga Rockers - Hun Er Fri Chords & Tabs

 

Hun Er Fri Chords & Tabs

Raga Rockers Chords & Tabs

Version: 1 Type: Tab 0 ratings
1 star 2 stars 3 stars 4 stars 5 stars
comments

Hun Er Fri Tab

   
-------------------------------------------------------------------------------
			     Hun er fri - Raga Rockers
-------------------------------------------------------------------------------
Tabbed by:Espen Rian skog
Email:Espenskog@gmail.com
[ Tab from: http://www.guitartabs.cc/tabs/r/raga_rockers/hun_er_fri_tab.html ]
Tuning:EADGBE
Intro ? Verse ?... Chorus ?..take ur pick...
    E     B     A
e|---------------------------------------------------------------------------|
B|---------------------------------------------------------------------------|
G|--9--9---------------------------------------------------------------------|
D|--9--9--9-9--7-7-----------------------------------------------------------|
A|--7--7--9-9--7-7-----------------------------------------------------------|
E|--------7-7--5-5-----------------------------------------------------------|
           E   
Hun er en båt uten anker
         B
Hun har hue fullt av tanker
       A        
og et hjerte som banker
    E
for ting som hun tror på
    B
Hun har ikke sko på 
   A
Hva er det du glor på
    E
din straite dust
          E
Hun ække inntressert i penger
       B
eller gull og grønne enger
       A
eller tull i myke senger 
        E
med en pappagutt som deg
      B
Så du kommer ingen vei 
      A
med å leke helt for henne               *And so on and so forth*

for det som får a' til å tenne 
er en gjennomført frik
Slik som han som er på vei bort hit
Han kan snakke hele natta
om ting hun blir betatt av
Så elsker de på matta
som ville dyr
Helt til dagen gryr
Det er et herlig eventyr
for vakre unge mennsker
Tyske, danske ,norske, svensker
fra gode trygge hjem
med lomma full av spenn
På jakt etter en venn 
de kanskje aldri ser igjen
Ja, det er romantikk
som grenser opp til poesi
Det er slike ting
som vil få minnene på gli
når sommeren er forbi

| /  slide up
| \  slide down
| h  hammer-on
| p  pull-off
| ~  vibrato
| +  harmonic
| x  Mute note
===============================================================================
Comments