Radja - Yakin Chords & Tabs

 

Yakin Chords & Tabs

Radja Chords & Tabs

Version: 1 Type: Tab

Yakin Tab

SOLO

|----------------------------------------------------------------------------|
|---16b-14p13-------------13-14-/20-19-18-19-16p14-13------------------------|
|--------------15---13-15----------------------------------------------------|
|----------------------------------------------------------------------------|
|----------------------------------------------------------------------------|
|----------------------------------------------------------------------------|

|----------------------------------------------------------------------------|
|------/21-19--18p16h18--13h14h14h14h14--------/18-16-16-14-----------16-14--|
|--13------------------------------------13-11-----------------17-17---------|
|----------------------------------------------------------------------------|
|----------------------------------------------------------------------------|
|----------------------------------------------------------------------------|
[ Tab from: http://www.guitartabs.cc/tabs/r/radja/yakin_tab.html ]
|----------------------------------------------------------------------------|
|--------/18-16-16-----14----------------------------------------------------|
|--13-11-----------17--------------------------------------------------------|
|----------------------------------------------------------------------------|
|----------------------------------------------------------------------------|
|----------------------------------------------------------------------------|

|----------------------------------------------------------------------------|
|------10-8-6-------10-8-8-6-----8-6-6-------/10-8-8---6---------------------|
|---/7--------9-7-7----------9-9-------5-3-3---------9-----------------------|
|----------------------------------------------------------------------------|
|----------------------------------------------------------------------------|
|----------------------------------------------------------------------------|

Tabbed by FeE CruisE
Any changes or mistake please email feecruise@hotmail.com