Radiohead - Wolf At The Door Chords & Tabs

 

Wolf At The Door Chords & Tabs

Radiohead Chords & Tabs

Version: 1 Type: Tab 0 ratings
1 star 2 stars 3 stars 4 stars 5 stars
comments

Wolf At The Door Tab

   
"Wolf At The Door"
Radiohead
from "Hail To The Thief"
tabbed by arlen b, 04/12/03
website: http://www.geocities.com/kingoftheeskimos

standard tuning

intro/verse:
  Dm          Dsus2       Gm/Eb       Gm
e----------------------------------------------------------------------
B-------6-----------5-----------4-----------3--------------------------
G-----7---7-------7---7-------3---3-------3---3------------------------
D---7-------7---7-------7-----------5-----------5----------------------
A-5-----------5-------------5-----------5------------------------------
E-------------------------3-----------3--------------------------------

  Asus4       A/G
e----------------------------------------------------------------------
B-------3-----------2(3-5)*--------------------------------------------
G-----2---2-------2---2------------------------------------------------
D---2-------2---2-------2----------------------------------------------
A-0--------------------------------------------------------------------
E-------------3--------------------------------------------------------
*notes in parenthesis are used in place of other notes on some repetitions


chorus:
  D/F#                    G
e----------------------------------------------------------------------
B-----3-----3-----3-----3-----3-----3-----3-----3----------------------
G---2-----2-----2-----2-----4-----4-----4-----4------------------------
D----------------------------------------------------------------------
A----------------------------------------------------------------------
E-2-----2-----2-----2-----3-----3-----3-----3--------------------------

  Dmaj7/F#                      G  
e----------------------------------------------------------------------
B-----2-----2-----2-----2--2----3--------------------------------------
G---2-----2-----2-----2----2----4--------------------------------------
D--------------------------0----0--------------------------------------
A----------------------------------------------------------------------
E-2-----2-----2-----2------2----3--------------------------------------
[ Tab from: http://www.guitartabs.cc/tabs/r/radiohead/wolf_at_the_door_tab.html ]
bridge:
  Dm          Csus2       Bb          Am          A
e----------------------------------------------------------------------
B-------6-----------3-----------3-----------1-----------2--------------
G-----7---7-------5---5-------3---3-------2---2-------2---2------------
D---7-------7---5-------5---3-------3---2-------2---2-------2----------
A-5-----------3-----------1-----------0-----------0--------------------
E----------------------------------------------------------------------

  Dm          Csus2       Bb          Am          A
e------------------------------(0---1)*----(0---1)*--------------------
B-------6-----------3-----------3-----------1-----------2-3-5----------
G-----7---7-------5---5-------3---3-------2---2-------2----------------
D---7-------7---5-------5---3-------3---2-------2---2------------------
A-5-----------3-----------1-----------0-----------0--------------------
E----------------------------------------------------------------------

  Dm          Csus2       Bb          A
e----------------------------------------------------------------------
B-------6-----------3-----------3-----------2-3-5----------------------
G-----7---7-------5---5-------3---3-------2----------------------------
D---7-------7---5-------5---3-------3---2------------------------------
A-5-----------3-----------1-----------0--------------------------------
E----------------------------------------------------------------------
*a note on this section: there are two guitars arrpegiating these chords,
but they don't play exactly the same thing; this is just a rough guide for
this section, arranged for one guitar. the notes in parenthesis are
distinguishable notes played by the second guitar that differ from the main
part.


2nd verse: as before, with this lead over top:
e---------------------------10----12-13--------------------------------
B---------------------------------------11----10-8-8b10----------------
G-7----9-10------------------------------------------------------------
D-----------8----7-5-5b7*----------------------------------------------
A----------------------------------------------------------------------
E----------------------------------------------------------------------
*this bend from G to A is slightly difficult to accomplish on this string
(for me, anyways; i use quite a thick guage), so i just bend the open G
string up to an A, by pressing on the string up above the first fret.


2nd chorus: as before

outro: just play the chorus.




Comments