Radiohead - There There Chords & Tabs

 

There There Chords & Tabs

Radiohead Chords & Tabs

Version: 6 Type: Tab 0 ratings
1 star 2 stars 3 stars 4 stars 5 stars
comments

There There Tab

There There (studio version)
Radiohead
from Hail to the Theif
tabbed by shun   26/03/04

sorry. Since it mistook, it corrected.

key:
/ - slide up
\ - slide down
b - bend note
p - pull off
drop D tuning

e----------0-2---------3--2--0-------------------
B------0-------0---------------------------------
G----2---2-----------2----------4------2----0----
D---0---------------0-----------0------0----0----
A-2---------------2-------------x------x----x----
D-------------------------------5------4----2----
in pitch dark.... 

chorus:
e-----------------------------------------------------------
B-----------------------------------------------------------
G-6----------6-------7-------6-------------4------2----0----
D-7----------x-------x-------x-------------0------0----0----
A-x----------4-------5-------4-------------x------x----x----
D-7----------4-------4-------4-------------5------4----2----
just cos you feel it doesn't mean it's there
[ Tab from: http://www.guitartabs.cc/tabs/r/radiohead/there_there_tab_ver_6.html ]
outro main chords:
e-----------------------------------------------------
B-----------------------------------------------------
G-----------------------------------------------------
D--9-7-----7--9---7--9---7--9--7--9-------------------
A--9-7-----7--9---7--9---7--9--7--9-------------------
D--9---9-9----9------9------------9-------------------

e-------------------------------------------------
B-------------------------------------------------
G-------------------------------------------------
D--12--10-------10-12--10-12--10-12-10-12---------
A--12--10-------10-12--10-12--10-12-10-12---------
D--12-----12-12----12---- 12-----------12---------

e-------------------------------------0----------
B-------------------------------------0----------
G-------------------------------------0----------
D-----7------7------------------------2----------
A--7--7--7-7-7-7--7--9-9-9-7----------x----------
D--7-----7-7---7--7--7-7-7-7----------2----------
Comments