Radiohead - There There Chords & Tabs

 

There There Chords & Tabs

Radiohead Chords & Tabs

Version: 1 Type: Tab 0 ratings
1 star 2 stars 3 stars 4 stars 5 stars
comments

There There Tab

   
"There There" (studio version)
Radiohead
from Hail to the Theif
tabbed by arlen b, 03/31/03
webpage: http://www.geocities.com/kingoftheeskimos

notes: ok, i just downloaded the new album yesterday, and it is
bloody brilliant. and don't worry, i fully intend to actually purchase
the album when it comes out in june. but like i can fucking wait for
radiohead! anyways, this is pretty rough, but it'll get you started...

intro (with variation):
  E7sus4(B bass) / Bm7
e----------0-2-----------------------------------
B------0-------0---------------------------------
G----2---2---------------------------------------
D---0--------------------------------------------
A-2----------------------------------------------
E------------------------------------------------

verse:
 E7sus4 / Bm7
e----------0-2---------3--2--0-------------------
B------0-------0---------------------------------
G----2---2-----------2---------------------------
D---0---------------0----------------------------
A-2---------------2------------------------------
E------------------------------------------------
[ Tab from: http://www.guitartabs.cc/tabs/r/radiohead/there_there_tab.html ]
  G     F#m6 Em7
e------------------------------------------------
B------------------------------------------------
G-4------2----0----------------------------------
D-0------0----0----------------------------------
A-x------x----2----------------------------------
E-3------2----0----------------------------------

chorus: ("just cos you feel it...")
  A     Dmaj7(F#bass) / D(F#bass)
e------------------------------------------------
B-2------2-----3---2-----------------------------
G-2------2-----2---2-----------------------------
D-2------0-----0---0-----------------------------
A-0------x-----x---x-----------------------------
E--------2-----2---2-----------------------------

  G     F#m6 Em7
e------------------------------------------------
B------------------------------------------------
G-4------2----0----------------------------------
D-0------0----0----------------------------------
A-x------x----2----------------------------------
E-3------2----0----------------------------------

outro (with arpeggios (sp?)):
 Bm    Dm6  Amadd9   Em
e-7-----7-----7------7----------------------------
B-0-----6-----x------0----------------------------
G-7-----x-----5------0----------------------------
D-0-----7-----7------5----------------------------
A-x-----5-----0------7----------------------------
E-7------------------0----------------------------
Comments