Radiohead - The Trickster Chords & Tabs

 

The Trickster Chords & Tabs

Radiohead Chords & Tabs

Version: 1 Type: Tab 0 ratings
1 star 2 stars 3 stars 4 stars 5 stars
comments

The Trickster Tab

"The Trickster" by Radiohead
From "My Iron Lung Ep"
Transcribed by Steven McGovern 

Verse & Intro (Gtr.1)
 Riff 1 _________________________________________________________________________________]
e-------------------------------------------------------------------------------------------------------------
B------3-3-3--3-3-3-3-3----3-3-3--3-3-3-3-3----3-3-3--3-3-3-3-3------4--4-6---3---3-3-3-3---------------------
G------3-2-0--2-3-2-0-0----3-2-0--2-3-2-0-0----3-2-0--2-3-2-0-0--3-3-3--3-3---2-2-2-2-2-2---------------------
D----------------------------------------------------------------0-0-0--0-0-0-0-0-0-0-0-0---------------------
A-------------------------------------------------------------------------------------------------------------
E--3-3-----------------2-2-----------------1-1----------------------------------------------------------------

 Gtr.2  (Gtr.1 Riff 1)
e-------------------------------------------------------------------------------------------------------------
B-------------------------------------------------------------------------------------------------------------
G-7-7-8--8-8-8-8-7-7-7/--8--8-8-8-8-7-7-5-3--8-8--8-8-8-8-7-7-x--8-8-8--8-8-10-x-x-12-x-x-14-15---------------
D-------------------------------------------------------------x----------------x-x----x-x---------------------
A-------------------------------------------------------------------------------------------------------------
E-------------------------------------------------------------------------------------------------------------

Verse           Pre-Chorus
e-------------------------------------------------------------------------------------------------------------
B-------------------------------------------------------------------------------------------------------------
G-- Riff 1 x2 ----8--8--7--8--8--7--7-7-7-7-7-7-7-7-7-7-7-----------------------------------------------------
D-------------------------------------------------------------------------------------------------------------
A-------------------------------------------------------------------------------------------------------------
E-------------------------------------------------------------------------------------------------------------

Chorus
 Riff 2_________________________________________________________________________]
e-------------------------------------------------------------------------------------------------------------
B------------------------------8---------------------8---8--8---9--7-----7------------------------------------
G--7-5-3-5-7-5-3--5--7-5-3-5-7---7-5--7-5-3-5-7-5-3----8------8------7-7---7-7-7--Riff 2----------------------
D-------------------------------------------------------------------------------------------------------------
A-------------------------------------------------------------------------------------------------------------
E-------------------------------------------------------------------------------------------------------------

e-------------------------------------------------------------------------------------------------------------
B-------------------------------------------------------------------------------------------------------------
G--Verse, Pre-Chorus,-----------------------------------------------------------------------------------------
D-------------------------------------------------------------------------------------------------------------
A-------------------------------------------------------------------------------------------------------------
E-------------------------------------------------------------------------------------------------------------

2nd Chorus
Riff 3 ______________________________________________________________________]
e-------------------------------------------------------------------------------------------------------------
B-------3---3------------3---8------------3---3-0--8---8-8---9-7-----7---7------------------------------------
G-7-5-3-5-3-5-3-5--7-5-3-5-3---7-5--7-5-3-5-3--------8-----8-----7-7---7---7-------Rifff2---------------------
D-------------------------------------------------------------------------------------------------------------
A-------------------------------------------------------------------------------------------------------------
E-------------------------------------------------------------------------------------------------------------

[ Tab from: http://www.guitartabs.cc/tabs/r/radiohead/the_trickster_tab.html ]
Interlude (2 gtrs for one)
  
e------0---------0-------0---------0---------0---------0--------0-----0----0----------0----------0------------
B--------3---------3-------3---------3---------3---------3--------3-----3----3----------3----------3----------
G------------0-0--------------0-0-----------------0--0--------------------------------------0-0---------------
D-------------------------------------------------------------------------------------------------------------
A-1--1----------------2-2----------------3-3-----------------2-2-------------------1-1------------------------
E-------------------------------------------------------------------------------------------------------------
 *=plucked with fretted finger
 Gtr 2.
            .5                 .5                    .5                 .5                   .5
e-------------------------------------------------------------------------------------------------------------
B-------------------------------------------------------------------------------------------------------------
G---0-0-0-0-2/\-0-0-0---0-0-0-0-2/\-0-0-0---0-0-0-0-2/\-0-0-0---0-0-0-0-2/\-0-0-0----0-0-0-0-2/\-0-0-0--------
D-------------------------------------------------------------------------------------------------------------
A-1-------------------2-------------------3-------------------2--------------------1--------------------------
E-------------------------------------------------------------------------------------------------------------
 
e-----0--------0----------------------------------------------------------------------------------------------
B-------3--------3--------------------------------------------------------------------------------------------
G---------0--0-----------0-0-0-0-0---0--0---0-0-0--0----------------------------------------------------------
D-------------------------------------------------------------------------------------------------------------
A-2-2----------------3-3--------------------------------------------------------------------------------------
E-------------------------------------------------------------------------------------------------------------

            .5                   .5         .5        .5---------]
e-------------------------------------------------------------------------------------------------------------
B-------------------------------------------------------------------------------------------------------------
G---0-0-0-0-2/\-0-0-0----0-0-0-0-2/\-0-0-0--2/\-0-0-0-2/------------------------------------------------------
D-------------------------------------------------------------------------------------------------------------
A-2--------------------3--------------------------------------------------------------------------------------
E-------------------------------------------------------------------------------------------------------------


e-------------------------------------------------------------------------------------------------------------
B-------------------------------------------------------------------------------------------------------------
G-------------------------------------------------------------------------------------------------------------
D-------------------------------------------------------------------------------------------------------------
A-------------------------------------------------------------------------------------------------------------
E-3-3-----2-2-----1-1----0-0---1-2-5-2---3-3---2-2---1-1--0-0--1-3-2-1-0--------------------------------------

e-------------------------------------------------------------------------------------------------------------
B--------------------------------------------------20---------------------------------------------------------
G-PChorus-19-17-15-17-19-17-15--17--19-17-15-17-19-19-19-17--19-17-15-17-19-17-15--20--20-20-20-19-19-19-17-15
D-------------------------------------------------------------------------------------------------------------
A-------------------------------------------------------------------------------------------------------------
E-------------------------------------------------------------------------------------------------------------

e-------------------------------------------------------------------------------------------------------------
B-------------------------------------------------------------------------------------------------------------
G-19-19-19-19-17--15--17-17-19-19-17-17-15-17--17-19-19-17-15--15-17--19-17-15-19--15-17-19-19-19-17-15-15-17-
D-------------------------------------------------------------------------------------------------------------
A-------------------------------------------------------------------------------------------------------------
E-------------------------------------------------------------------------------------------------------------

e-------------------------------------------------------------------------------------------------------------
B-------------------------------------------------------------------------------------------------------------
G-15-15-17-15-17-20----20----20----20----20----20-------------------------------------------------------------
D-------------------20----20----20----20----20----20----------------------------------------------------------
A-------------------------------------------------------------------------------------------------------------
E-------------------------------------------------------------------------------------------------------------

          ~             ~            ~            ~            ~            ~            ~            ~
e-------------3------------3------------3------------3------------3------------3------------3------------3----
B-------------------------------------------------------------------------------------------------------------
G--7--5--3-3--5---7--5--3--5---7--5--3--5---7--5--3--5---7--5--3--5---7--5--3--5---7--5--3--5---7--5--3--5----
D-------------------------------------------------------------------------------------------------------------
A-------------------------------------------------------------------------------------------------------------
E-------------------------------------------------------------------------------------------------------------

         ~            ~        ~~                          ~            ~            ~            ~    
e-----------3------------3--------------------------------------3------------3------------3------------3------
B-------------------------------------------------------------------------------------------------------------
G--7--5--3--5---7--5--3--5---0-2--2-0--x-x-5-0-3-5--x--7--5--3--5---7--5--3--5---7--5--3--5---7--5--3--5------
D--------------------------------------x-x----------x---------------------------------------------------------
A--------------------------------------x-x--------------------------------------------------------------------
E-------------------------------------------------------------------------------------------------------------

          ~            ~            ~                                    ~
e------------3------------3-----------------------------------------------------------------------------------
B-------------------------------------------------------------------------------------------------------------
G---7--5--3--5---7--5--3--5---7--5--3---7-5-3-0--5-0-3-0------------------------------------------------------
D--------------------------------------------------------5-3-2-0----------------------------------------------
A----------------------------------------------------------------5-3-2-0--------------------------------------
E------------------------------------------------------------------------3------------------------------------

-Steven McGovern 
Comments