Radiohead - The Tourist Chords & Tabs

 

The Tourist Chords & Tabs

Radiohead Chords & Tabs

Version: 1 Type: Tab 0 ratings
1 star 2 stars 3 stars 4 stars 5 stars
comments

The Tourist Tab

   
"The Tourist"
from the album 'Ok Computer'
by Radiohead

Tab made by: Andreas Jonsson 
Ending solo by: Mad Max 

       B                                               F#m
                                           ********                                     
E---|-----0-----------0-----------0-----------------|-----2-----------2---------
B---|--------4-----------4-----------4-----5--4-----|-----------2---------------
G---|--4--------4-----------4-----------4--6--4--4--|--2-----2-----------2------
D---|--4-----------4-----------4-----------------6--|--4-----------4------------
A---|--2-----------2-----------2--------------------|--4------------------------
E---|-----------------------------------------------|--2------------------------
                                                                                
* = Played by two guitars, with variations. (one silent, the other sounding...)

       A                                         G#
[ Tab from: http://www.guitartabs.cc/tabs/r/radiohead/the_tourist_tab.html ]
E---------5-----------5-----------5-----------|-----4-----------4---------------
B---4-----------5-----------5-----------5-----|-----------4-----------4---------
G------6-----6-----------6-----------6--------|--5-----5-----------5------------
D------7-----------7-----------7-----------7--|--6-----------6-----------6------
A------7-----------7-----------7-----------7--|--6-----------6-----------6------
E------5--------------------------------------|--4------------------------------


E---4---------------------||
B---------4---------------||
G------5--------6--5--3--*||
D------------------------*||
A-------------------------||
E-------------------------||

                                                                                
Verse:
B-----F#m-----A-----G#

Chorus:
B---------F#m------Am

Chorus at the end of song:
B--E-B--E-F#m------Am


CHORDS:
    EADGBe
B   x24442
F#m 244222
A   577655
G#  466544
Am  x02210
E   xx245x

LYRICS:
It barks at no-one else but me,
like it's seen a ghost.
I guess it's seen the sparks a-flowin,
no-one else would know.

Hey man, slow down...slow down
Idiot, slowdown....slow down

Sometimes I get overcharged,
thats when you see sparks.
They ask me where the hell I'm going,
at a 1000 feet per second.

Hey man, slow down...slow down
Idiot, slow down....slow down

---

ending solo:

e----------------------8---7h8p7-
B-7---7--5-----9^(1/4)-----------
G--------------------------------
D--------------------------------
A--------------------------------
E--------------------------------
Comments