Radiohead - The Bends Chords & Tabs

 

The Bends Chords & Tabs

Radiohead Chords & Tabs

Version: 6 Type: Tab 0 ratings
1 star 2 stars 3 stars 4 stars 5 stars
comments

The Bends Tab

   
-------------------------------------------------------------------------------
			     The Bends - RADIOHEAD
-------------------------------------------------------------------------------
Tabbed by: Ciara
Email:ciaraocallaghan@iol.ie

THIS IS 100% CORRECT.It was taken from a guitar magazine. I dont take any credit for it.
To get the timings just listen to the cd and you will get them pretty easy. (",)


Tuning:Standard

CHORDS:

D  Cadd9  G/B  Em  G  C  A  C  Csus  C7  E5  Am7  Cmaj7 

									
INTRO:

e|-2-------------------------------------------------------------------------|
B|-3------------3-3----------------------------3-------3----3--3-3-3-3-3-----|
G|-2------------0-0--------------0-------------0-------0----0--0-0-0-0-0-----|
D|-0------------2-0----------2-----------------2---2---2-------2-2-2-2-2-----| x4
A|--------------3-2------3-----------3--2------3---3---3-------3-3-3-3-3-----|
E|-------------------------------------------------------------0-0-0-0-------|


VERSE 1:

e|--------------------0---0--------------------------------------------------|
B|----0---0---0-------0---0-----------0--0--0------0--0-------1--1--1--------|
G|----0---0---0-------0---0-------0---0--0--0------0--0-------0--0--0-----0--|
D|----2-----------2---2---2-------0---0--0--0--0---0--0---2---2--2--2-----2--|
A|----2-----------2-----------2---2------------2----------3---------------3--|
E|-0--3-----------0-----------3----------------3-----------------------------|

e|---------------------------------------------------------------------------|
B|-1-1-1---------1--1-1----------1--1--1-------------------------------------|
G|-0-0-0------0--0--0-0-------0--0--0--0-------------------------------------|
D|-2-2-2---2--2--2--2-2-------2--2--2--2-------------------------------------|
A|-3-3-3---3------------------3--3--3--3-------------------------------------|
E|---------------------------------------------------------------------------|


VERSE LINK:

e|---------------------------------------------------------------------------|
B|------------------------5---8---7---5--------------------------------------|
G|-6-----6---------6---7--0-------------------------------9--9--9--X--X--9---|
D|-7-----7---X--X---------0----------------------------------------X--X------|
A|-7-----7---X--X------------------------------------7-----------------------|
E|-5-----5---X--X--------------------------4----7----------------------------|

e|---------------------------------------------------------------------------|
B|-----8--11----8--11--8--11--8--11----(12)----------------------------------|
G|-10------------------------------------------------------------------------|
D|---------------------------------------------------------------------------|
A|---------------------------------------------------------------------------|
E|---------------------------------------------------------------------------|


VERSE 2:
[ Tab from: http://www.guitartabs.cc/tabs/r/radiohead/the_bends_tab_ver_6.html ]
e|-----0----0-----0-----0--------------3----3--3-------3----3----------------|
B|-----0----0-----0-----0--------------0----0--0-------0----0---1--1--1--1---|
G|-----0----0-----0-----2--------------0----0--0-------0----0---0--0--0--0---|
D|-2---2-------2-----2--2----------0---0-------0---0---0----0---2--2--2--2---|
A|-2-----------2-----2--2----------2---2-------2---2---2----2---3--3--3--3---|
E|-0-----------0-----0--0---2------3---3-------3---3---3----3----------------|

e|---------------------------------------------------------------------------|
B|-1--------1--1----1---1---1--X--X------------------------------------------|
G|-0--0-----0--0----0---0---0--X--X---3----X--3------------------------------|
D|-2--2-----2--0----2---2---2--X--X---2----X--2------------------------------|
A|----3-----3--3----3---3---3--X--X---3----X--3------------------------------|
E|---------------------------------------------------------------------------|


CHORUS:

e|-2---2--2--2--2------------------------------------------------------------|
B|-3---3--3--3--3---3---0----------------------------------------------------|
G|-2---2--2--2--2---0---0--------------------------------7--7-----5--4-------|
D|-0---0--0--0--0---2---0--------------------------5-----5--5-----5--------5-|
A|------------------3---2---0--7----7---5-----7------------------------------|
E|---------------------------------------------------------------------------|

e|---------------------------------------------------------------------------|
B|---------------------------------------------------------------------------|
G|--------------------------------7-------------7----------------------------|
D|-7----7----7-7-------------------------------------------------------------|
A|----------------5--5--5---7--------7--5---3------7-7-7-7-7-5-3-3-3--(4)-(4)|
E|---------------------------------------------------------------------------|


Bridge:

e|---------------------------------------------------------------------------|
B|---------------------------------------------------------------------------|
G|----------------------------------3-3-3-3-3-3-3-3-3-3-3-3-3-3-3-/11--------|
D|-2-2-2-2-2-2-2-2-2-2-2-2-2-2-2-0-------------------------------------------|
A|-2-2-2-2-2-2-2-2-2-2-2-2-2-2-2-0--1-1-1-1-1-1-1-1-1-1-1-1-1-1-1-/-9--------|
E|-0-0-0-0-0-0-0-0-0-0-0-0-0-0-0-0-------------------------------------------|


VERSE 3:

e|---------------------------------------------------------------------------|
B|---------------------------------------------------------------------------|
G|-11---9---------7--7---7----5----4-------------------------------------12--|
D|--------------------------------------5---------------------------9--------|
A|-9----7---------5--5---5----3----2-------------------------------------10--|
E|--------------------------------------3---------------------------7--------|


e|---------------------------------------------------------------------------|
B|---------------------------------------------------------------------------|
G|-5---5-5-5--X-X--7--7-7-7--X--X--9--9--9/12-12-12-12-12-12-12-12-12-12-12--|
D|---------------------------------------------------------------------------|
A|-3---3-3-3--X-X--5--5-5-5--X--X--7--7--7-10-10-10-10-10-10-10-10-10-10-10--|
E|---------------------------------------------------------------------------|



| /  slide up
| \  slide down
| h  hammer-on
| p  pull-off
| ~  vibrato
| +  harmonic
| x  Mute note
===============================================================================
Comments