Radiohead - Street Spirit Fade Out Chords & Tabs

 

Street Spirit Fade Out Chords & Tabs

Radiohead Chords & Tabs

Version: 2 Type: Tab 0 ratings
1 star 2 stars 3 stars 4 stars 5 stars
comments

Street Spirit Fade Out Tab

   
You play only Am, Em and C for the whole song, and the chords C/G and E are for the 
bridge only.

Am
e|-----0--------0-------0-----------|
B|----------3-------1-------0-------|
G|-------2----2---2---2---2---2---2-|
D|---2--------------------------2---|
A|-0--------------------------------|
E|----------------------------------|

Em
e|-----0--------0-------0-----------|
B|----------3-------1------0--------|
G|---0---0----0---0---0--0---0----0-|
D|------------------------------2---|
A|----------------------------------|
E|-0--------------------------------|

C
e|-----0--------0-------0-----------|
B|----------3-------1------0--------|
G|---0---0----0---0---0--0---0----0-|
D|------------------------------2---|
A|-3--------------------------------|
E|----------------------------------|

C/G
e|-----0--------0-------0-----------|
B|----------3-------1------0--------|
G|---0---0----0---0---0--0---0---0--|
D|-----------------------------2----|
A|----------------------------------|
E|-3--------------------------------|

E
e|-----0--------0-------0-----------|
B|----------3-------1-------0-------|
G|---1---1----1---1---1---1---1---1-|
D|------------------------------2---|
A|----------------------------------|
E|-0--------------------------------|


Intro:
Am Am Am Am
[ Tab from: http://www.guitartabs.cc/tabs/r/radiohead/street_spirit_fade_out_tab_ver_2.html ]
Verse 1:
Am              Am
Rows of houses, all bearing down on me
Am               Am
I can feel their blue hands touching me
Em
All these things into position
Em
All these things we'll one day swallow whole

Am Am

Chorus:
C        Em      Am Am
And fade out again
C        Em
and fade out

Am Am

Verse 2:
Am                 Am
This machine will, will not communicate
Am                                Am
These thoughts and the strain I am under
Em
Be a world child, form a circle
Em
Before we all go under

Am Am

Chorus:
C        Em      Am Am
And fade out again
C        Em
and fade out

Am Am

Verse 3:
Am
Cracked eggs, dead birds
Am
Scream as they fight for life
Am                Am
I can feel death, can see its beady eyes
Em
All these things into position
Em
All these things we'll one day swallow whole

Am Am

Chorus:
C        Em      Am Am
And fade out again
C        Em
and fade out

Am Am

Bridge:
C Em Am Am x4

C/G         E        Am Am
Immerse your soul in love

C/G         E        Am Am
Immerse your soul in love
Comments