Radiohead - Scatterbrain Chords & Tabs

 

Scatterbrain Chords & Tabs

Radiohead Chords & Tabs

Version: 3 Type: Tab 0 ratings
1 star 2 stars 3 stars 4 stars 5 stars
comments

Scatterbrain Tab

   
"Scatterbrain"
Radiohead
from "Hail To The Thief"
tabbed by arlen b, 04/12/03
website: http://www.geocities.com/kingoftheeskimos

standard tuning

intro:
  C6       Bm7      Am7      G6
e----------------------------------------------------------------------
B----------------------------------------------------------------------
G-----9--------7--------5--------4-------------------------------------
D---7--------5--------3--------2---------------------------------------
A----------------------------------------------------------------------
E-8--------7--------5--------3-----------------------------------------

verse (w/ variation):
  C6       Bm7      Am7      G6       F#m6     Em       Esus4
e----------------------------------------------------------------------
B----------------------------------------------------------------------
G-----9--------7--------5--------4--------2--------0--------2---4------
D---7--------5--------3--------2--------1--------2--------2------------
A----------------------------------------------------------------------
E-8--------7--------5--------3--------2--------0--------0--------------
[ Tab from: http://www.guitartabs.cc/tabs/r/radiohead/scatterbrain_tab_ver_3.html ]
bridge:
e-------------1---0------0-------0-------------------------------------
B-----4---3-2----------0-------0---------------------------------------
G---3-------2--------0--------------0----------------------------------
D--------------------------2-0-----------------------------------------
A----------------------------------------------------------------------
E-3--------------------------------------------------------------------

2nd verse, same as first, but with a simple guitar lead over top. it's
very easy; single notes at a slow rate, but with little pattern. this is
my least favourite track off HTTT, so i can't really be bothered to tab it
all out, but if someone is desperate for it (remember; it's easy, so you 
can probably do it yourself...), make a request and i'll give it a try.

chorus (w/ much variation; this is just the rough chords/notes):
  Gsus2   G Bb    Bbm  Bm            D
e------------------------------3p2-----------5-------------------------
B-----1---0-----3---2------3-------3-----7-----7-----------------------
G---0---------3--------------4-------------7-----7---------------------
D------------------------4-------------7-------------------------------
A-----------1----------2-------------5---------------------------------
E-3--------------------------------------------------------------------

lead at the end (i love this riff...):
e-------12--------14---------------------------------------------------
B----15------15-------15--14h15----------------------------------------
G-12-------------------------------------------------------------------
D----------------------------------------------------------------------
A----------------------------------------------------------------------
E----------------------------------------------------------------------
Comments