Radiohead - Scatterbrain Chords & Tabs

 

Scatterbrain Chords & Tabs

Radiohead Chords & Tabs

Version: 2 Type: Tab 0 ratings
1 star 2 stars 3 stars 4 stars 5 stars
comments

Scatterbrain Tab

Artist: Radiohead
Song: Scatterbrain
Album: Hail to the thief
Tabbed By: becker69uk@hotmail.com



Riff 1:

E----------------------------------------------------------------
B----------------------------------------------------------------
G----------9-----------7------------5-----------4----------------
D-------7------------------------------------2-------------------
A------------------10------------7-------------------------------
E----8-----------7------------5-----------3---------------------- 


Riff 2:

E----------------------------------------------------------------
B----------------------------------------------------------------
G----------2-----------0-----------2----4------------------------
D-------0-----------2-----------2--------------------------------
A----------------------------------------------------------------
E----2-----------0-----------0-----------------------------------


Riff 3:
[ Tab from: http://www.guitartabs.cc/tabs/r/radiohead/scatterbrain_tab_ver_2.html ]
E-------------------------------------6--5----------------5-------
B----------4--3-----------6--5-----6--------6-------6--------6----
G-------3-----------6---------------------------------------------
D-----------------------------------------------------------------
A-------------------------------5--------------5\3-----3----------
E----3-----------5------------------------------------------------


Outro:


E----14----------12------14--------------------------------------
B--------------15------15------15--14/15-------------------------
G----------14----------------------------------------------------
D----------------------------------------------------------------
A----------------------------------------------------------------
E----------------------------------------------------------------


E----10------10--12--10--12--10--9/10----------------------------
B----------------------------------------------------------------
G----------12----------------------------------------------------
D----------------------------------------------------------------
A----------------------------------------------------------------
E----------------------------------------------------------------

Thats mainly it...there is another bit of lead guitar to go over all that somehwere in the song but i couldn't be bothered to tab it.

Heres the order:

Riff1: x3
Riff2: x1
Riff1&2: x1
Riff1&2: x1
Riff1&2: x1
Riff3: x2
Riff1&2: x1
Riff1&2: x1
Riff1&2: x1
Riff1&2: x1
Riff3: x7
Outro
Comments