Radiohead - Paranoid Android Chords & Tabs

 

Paranoid Android Chords & Tabs

Radiohead Chords & Tabs

Version: 6 Type: Tab 0 ratings
1 star 2 stars 3 stars 4 stars 5 stars
comments

Paranoid Android Tab

Radiohead  Paranoid Android

Arranged for Internet by: Mouse (leatherface 74)

Posted on August 29, 2003

Update: April 12, 2004: I added a correction on what ed plays during the
"what's that" section.Correction is at the bottom of the tab. 

Update: January 21, 2004: After hours of looking at live concert 
footage of the band and looking at what each person in the band 
is playing I will correct all the mistakes in this tab and make 
damn near as perfect as is possible. I will do this in a wierd 
way though. Rather than altering the presently posted tab (which
in my opinion sounds great) I will add the changes at the end 
of the transcription in an update section, I do this to give 
you a choice because some of the corrections are more difficult
to play. Most of the corrections involve the chords Thom plays
during  the "ambition make you pretty ugly" and "rain down" 
sections. The chords in this tab are the correct chords, 
Thom just plays them in a different position on the fretboard. 
Oh and if you have any comments or corrections please post them. 
And please vote for this tab if you can.
  

Performance Notes:

Ok lets begin with Guitar 1 which is Thom Yorke. This
part was played with a pick and it is quite complex looking 
because of the loose picking pattern. It is best not to try 
to hit every note exactly, just try to get the vibe of the 
song. Any part that guitar 1 repeats is played similarly on repeats.

Guitar 2 is Jonny Greenwood, his insane playing style is so 
distinctive it is impossible for it to be anyone else. 
For this part you're going to need a delay pedal, flanger, 
and a pitch shifter. Johnny plays some crazy harmonics like 
2.5 which is halfway between the second and third fret. I 
suggest you read the attached legend in order to decipher 
the method I used to arrange his bends and pre-bends.

One last note about guitar 3 (Ed O' Brien), if you do not 
own a guitar with 24 frets don't worry you can tune up 
your high e and b strings a whole step and just play the
part relative to your new tuning. Or if you have and 
octave effects pedal you can just set it to raise the 
pitch of the guitar one octave and play the part at the tenth fret.


Legend:

(5)- Ghost Note: A note in parenthesis that is barely heard in a recording
or represents a note that is supposed to ring for longer than one measure. 
PM - Palm mute
NH - Natural Harmonic
B  - Bend (I've placed how much to bend over the measure; for example a      
     .25 is a quarter step bend, a .5 is a half step bend, a .75 is a 
      three fourths step bend, a 1 would be a whole step bend, 2.5 would   
      be a two and a half step bend, etc.
Pb - Pre-Bend: The note is bent to a pre-determined pitch before it is  
      picked.

Pbr- Pre-Bend Release: The note is bent to a predetermined pitch before it 
is picked and is released to its original pitch. 

Brh- Bend Release Hammer-on: Bend note to a pitch then release it to its 
      Original pitch then either hammer-on or pull-off to a higher or 
      Lower fret.

/  - Slide: If I have to explain this one you shouldn't be playing this 
 	song.

H  - Hammer-on     

Br - Bend-Release: Bend note to a pitch then release it to its original
      Pitch.
~~ - Vibrato: Vibrating a string either by moving up and down with your
      fingers or by using a whammy bar.


Well Anyways here you go. Thanx for reading.



Paranoid Android

Words and Music by: Thomas Yorke, Jonathan Greenwood, Colin Greenwood,
Ed 'O Brien, and Philip Selway


Intro
Bpm: 84

 Gtr. 1 Acoustic 
E||---------------------------------|-------------------------------|
B||-------8---------------8---------|-------8-----------------------|
G||-----------8-----------8---8-----|-----------8---------8---8-----|
D||---------------0---0-----0-------|-----------------0-------0-----|
A||-----x---------0---------x-----0-|--8--8---------0---0---------0-|
E||--8------8---8---6---6---6---6---|--x------x-------------6---6-0-|
 

[Gtr. 1                                                              
[|--------------------------------|----------------------------0-------| 
[|--3----3--------------3---------|--3------3---3--3~-------3--3---3---|
[|-----------3---3------3---3-----|--3-------------2~----0--0--0---0---|
[|--0--------------0----------0-0-|--2----2---2----------2--2--2---2-0-|
[|-----------------0--0---1---1---|----------------------------------0-|
[|--3--3---3---3------------------|------------------------------------|
[
[Gtr. 2 Elec. w/ Flanger
[|--------------------------------|------------------------------------|
[|-----------------------15----15-|---------15----------15---------15--|
[|--------------------------15----|--15~-15----15--14~~----12--12------|
[|--------------------------------|------------------------------------|
[|--------------------------------|------------------------------------|
[|--------------------------------|------------------------------------|


[ GTR. 1                                                              
[|---------------------------------|------------------------------|
[|-------3-----------3---3---3---3-|--3------3---3-3~--3-3--3-----|
[|-----------3---3---3-------3---3-|--3----3---3---2~--0-0--0-----|
[|-----0---------------------------|--2--------2---2~----2--2--0--|
[|-----------------0---0---1---1---|---------------------------0--|
[|--3------3---3-------------------|------------------------------|
[
[ GTR. 2                     let ring-----------------------]
[|---------------------------------|------------------------------|
[|---------------------------3---3-|---------3---3-----3-------3--|
[|--12~~~~~~~~~~~--------------3---|--3----3---3---2-----0--0-----|
[|---------------------------------|------------------------------|
[|---------------------------------|------------------------------|
[|---------------------------------|------------------------------|
                                                                  




1st Verse

          Please could  you  stop     the    noise   I'm  tryin'   
[ GTR. 1 
[|---------------------------------|-------------------------------|
[|-------8---------------8---------|-------8-----------------------|
[|-----------8-----------8---8-----|-----------8---------8---8-----|
[|---------------0---0-----0-------|-----------------0-------0-----|
[|-----x---------0---------x-----0-|--8--8---------0---0---------0-|
[|--8------8---8---6---6---6---6---|--x------x-------------6---6-0-|
[
[ GTR. 2  let 4 ring                                          
[|---------------------------------|-------------------------------|
[|--4------------------------------|-------------------------------|
[|---------------------------------|-------------------------------|
[|---------------------------------|-------------------------------|
[|---------------------------------|-------------------------------|
[|---------------------------------|-------------------------------|



        to     get    some   rest
[ GTR. 1                                                              
[|----------------------------------|---------------------------------|
[|--3-----3---------------3---------|------3---3-3---3--3-3---3-----|
[|------------3---3-------3---3-----|-------------2---2--2-2---2-----|
[|--0---------------0-----------0-0-|-------------2---2--2-2---2----|
[|------------------0--0----1---1---|-----------------------------x-0-|
[|--3---3---3---3-------------------|-0--0---0------------------------|
[
[ GTR. 2
[|----------------------------------|---------------------------------|
[|--------------------------15----15|-------15------------15-------15-|
[|-----------------------------15---|-15-15---15/14-14~-14---12-12~---|
[|----------------------------------|---------------------------------|
[|----------------------------------|---------------------------------|
[|----------------------------------|---------------------------------|
        

[ GTR. 1                                                       
[|---------------------------------|----------------------------|
[|-------3-----------3---3---3---3-|-------3---3-3---3-3--3-----|
[|-----------3---3---3-------3---3-|-------------2---0-0--0-----|
[|-----0---------------------------|-------------2-----2--2--0--|
[|-----------------0---0---1---1---|-------------------------0--|
[|--3------3---3-------------------|--0--0---0------------------|
[
[ GTR. 2
[|---------------------------------|----------------------------|
[|--------------------------3---3--|-------3---3-------3------3-|
[|-12~~~~~~~~~~~~-----12/-----3----|-3---3---3---2-------0--0---|
[|---------------------------------|----------------------------|
[|---------------------------------|----------------------------|
[|---------------------------------|----------------------------|
                                                                  

       From     all     the      unborn    chicken         voices
  Gtr.1
[|---------------------------------|-------------------------------|
[|-------8---------------8---------|-------8-----------------------|
[|-----------8-----------8---8-----|-----------8---------8---8-----|
[|---------------0---0-----0-------|-----------------0-------0-----|
[|-----x---------0---------------0-|--8--8---------0---0---------0-|
[|--8------8---8---6---6---6---6---|--x------x-------------6---6-0-|
[
[                                                      .5    .5
[|---------------------------------|-------------------------------|
[|---------------------------------|-------------------3b---3br----]
[|--4------------------------------|-------------------------------|
[|---------------------------------|-------------------------------|
[|---------------------------------|-------------------------------|
[|---------------------------------|-------------------------------|


        in      my        head

[|--------------------------------|------------------------------------|
[|--3----3--------------3---------|--------3---3--3--3--3--3--3-------|
[|-----------3---3------3---3-----|---------------2--2--2--2--2-------|
[|--0--------------0----------0-0-|---------------2--2--2--2--2-------|
[|-----------------0--0---1---1---|--------------------------------x-0-|
[|--3--3---3---3------------------|--0---0---0-------------------------|
[
[
[|--------------------------------|------------------------------------|
[|-----------------------15----15-|--------15------------15------------|
[|--------------------------15----|-15~-15----15--14--14----12--12/----|
[|--------------------------------|------------------------------------|
[|--------------------------------|----------------------------------0-|
[|--------------------------------|------------------------------------|
 

				  What's         that?
  Gtr.1 and Gtr.2 (Gtr. 2 doubles gtr. 1 loosely)
[|--------0-------------------0--------|---------0-------0----0--------|
[|-------------3------------------3----|-----3------3-------3-----3-3--|
[|-----3----3--------3---3-------------|---------------2------------2--|
[|----------------0---------0---0---0--|-------------------------------|
[|-------------------------------------|-----3-----------3-------------|
[|--3----------------------------------|--1----------------------------|
[
[ Gtr. 3 (w/Tremolo)
[|-----22-24--22----------22-24--22----|-----22-24--22----22-24--22----|
[|-23----------------23-------------23-|-22------------22------------22|
[|-------------------------------------|-------------------------------|
[|-------------------------------------|-------------------------------|
[|-------------------------------------|-------------------------------|
[|-------------------------------------|-------------------------------|



                                  What's
  Gtrs. 1 and 2
[|---------0--------------0--------|--------0---------------0--------|
[|-------------3--3-----3----------|------------3---------------3-3--|
[|----------------1---1-------1----|----------------3---3------------|
[|------0--------------------------|------0-------0-------0----------|
[|---------------------------------|----------------------0----------|
[|--0---------------------------2--|--3------------------------------|
[
[ Gtr. 3
[|-----22-24--22------22-24--22----|-----22-24--22------22-24--22----|
[|-21-------------21------------22-|-23-------------23------------23-|
[|---------------------------------|---------------------------------|
[|---------------------------------|---------------------------------|
[|---------------------------------|---------------------------------|
[|---------------------------------|---------------------------------|
 

   that?
 Gtrs. 1 and 2                                                      
[|---------0--------------0-------|---------0---------------0-------|
[|-------------3-------3------3---|-------------3---------3-----3---|
[|-----------2----2---------------|----------------1----1-----------|
[|------0-------------------------|------2--------------------------|
[|--------------------------------|---------------------------------|
[|--1-----------------------------|--0------------------------------|
[
[ Gtr. 3
[|----22-24--22------22-24--22----|-----22-24--22-------22-24--22---|
[|-22------------22------------22-|-21--------------21--------------|
[|--------------------------------|---------------------------------|
[|--------------------------------|---------------------------------|
[|--------------------------------|---------------------------------|
[|--------------------------------|---------------------------------|


2ND Verse

			           When I         am   king
  Gtr.1                                                              
[|-------0-------------0-----------|---------------------------------|
[|-----3-----3---------------------|-------8---------------8---------|
[|--------------1----1---0---------|-----------8-----------8---8-----|
[|---------------------------------|---------------0---0-----0-------|
[|---------------------------------|-----x---------0---------------0-|
[|--0----------------------10---9--|--8------8---8---6---6---6---6---|
[
[ Gtr.2                                                     PM
[|-------0-------------0-----------|---------------------------------|
[|-----3-----3---------------------|-------8-------------------------|
[|--------------1----1---0---------|-----------8---8-0-------------0-|
[|---------------------------------|-----------------0-------5---5-0-|
[|---------------------------------|-------------------------6---6---|
[|--0----------------------10---9--|--8------------------------------|
[
[ Gtr.3
[|-----22-24--22--------22-24--22---|--------------------------------|
[|-21---------------21--------------|--------------------------------|
[|----------------------------------|--------------------------------|
[|----------------------------------|--------------------------------|
[|----------------------------------|--------------------------------|
[|----------------------------------|--------------------------------|
                                                                 

        you   will  be    first     against        the       wall
  Gtr.1
[|-------------------------------|--------------------------------|
[|-------8-----------------------|--3----3--------------3---------|
[|-----------8---------8---8-----|-----------3---3------3---3-----|
[|-----------------0-------0-----|--0--------------0----------0-0-|
[|--8--8---------0---0---------0-|-----------------0--0---1---1---|
[|--x------x-------------6---6-0-|--3--3---3---3------------------|
[
[ Gtr.2
[|-------------------------------|--------------------------------|
[|------8------------------------|-------3----------------15---15-|
[|---------8-----0-----------0-0-|-----3-----3-----(3)\15---15----|
[|--7----------------------------|--------------------------------|
[|--8--------8-----------8-------|--------------------------------|
[|-------------------------------|--3-----------------------------|

 
  
  Gtr.1                                                              
[|-----------------------------0------|--------------------------------|
[|--3------3----3---3~------3--3--3---|------3-----------3---3---3---3-|
[|--3---------------2~---0--0--0--0---|----------3---3---3-------3---3-|
[|--2---2-----2----------2--2--2--2-0-|----0---------------------------|
[|----------------------------------0-|----------------0---0---1---1---|
[|------------------------------------|-3------3---3-------------------|
[
[ Gtr.2
[|------------------------------------|--------------------------------|
[|---------15----15--------15---------|------3-------------------3---3-|
[|--15~-15----15----14~-14----12~-12/-|----------3-----------------3---|
[|------------------------------------|----0---0-----------------------|
[|------------------------------------|------------0-1-0-----0-1-------|
[|------------------------------------|-3------------------------------|
       
                                 With your  opinion
[ Gtr.1                                                        
[|----------------------------|---------------------------------|
[|--3----3---3-3~--3-3--3-----|-------8---------------8---------|
[|--3--3---3---2~--0-0--0-----|-----------8-----------8---8-----|
[|--2------2---2~----2--2--0--|---------------0---0-----0-------|
[|-------------------------0--|-----x---------0---------------0-|
[|----------------------------|--8------8---8---6---6---6---6---|
[
[ Gtr.2
[|----------------------------|---------------------------------|
[|-----3-3---3-----3----------|-------8-------------------------|
[|--3~-----3---2-----0--------|-------8---8---8-------------0-0-|
[|----------------------------|-------------0---0---------------|
[|----------------------------|-------------------------6---6---|
[|----------------------10-9--|--8------------------------------|

                                                                 

              which  is      of        no     consequence
[ Gtr.1
[|--------------------------------|--------------------------------|
[|-------8------------------------|--3----3--------------3---------|
[|-----------8----------8---8-----|-----------3---3------3---3-----|
[|------------------0-------0-----|--0--------------0----------0-0-|
[|--8--8----------0---0---------0-|-----------------0--0---1---1---|
[|--x------x--------------6---6-0-|--3--3---3---3------------------|
[
[ Gtr.2
[|--------------------------------|--------------------------------|
[|-------8------------------------|-------3-----------------15--15-|
[|-------8--8---8-0---------------|-----------3---3-----------15---|
[|--7--7-7---------------7--------|-----0-------0------------------|
[|--8---------8-------------------|-----------------0--------------|
[|--------------------------------|--3-----------------------------|
  
 
                     at                all                    What's
[ Gtr.1                                                        
[|---------------------------0-------|--------------------------------|
[|--3------3----3--3~-----3--3--3----|--------------------------------|
[|--3--------------2~---0-0--0--0----|--------------------------------|
[|--2---2----2----------2-2--2--2--0-|--------------------------------|
[|---------------------------------0-|--------------------------------|
[|-----------------------------------|--------------------------------|
[ Gtr.2                               Gtrs.1 and 2 
[|-----------------------------------|--------0---------1h0-----------|
[|---------15---15------15-----------|------3-----3-----------3-------|
[|--15~-15---15---14~------12--12/---|--3-----------3--------------3--|
[|-----------------------------------|------0---------------0---0-----|
[|-----------------------------------|--------------------------------|
[|-----------------------------------|--------------------------------|
[
[ Gtr.3
[|-----------------------------------|----22-24--22-------22-24--22---|
[|-----------------------------------|--23------------23-----------23-|
[|-----------------------------------|--------------------------------|
[|-----------------------------------|--------------------------------|
[|-----------------------------------|--------------------------------|
[|-----------------------------------|--------------------------------|
                                                                  

   that?
  Gtrs.1 and 2
[|--------0---------1h0-----------|--------0---------1h0-----------|
[|------3-----3-----------3-------|------3-----3-----------3-------|
[|--2-------2---2-------2------2--|--1-------1---1h0------------1--|
[|--------------------------0-----|--------------------------------|
[|--------------------------------|--------------------------------|
[|--------------------------------|--------------------------------|
[
[ Gtr.3
[|----22-24--22------22-24--22----|----22-24--22------22-24--22----|
[|-22-------------22-----------22-|-21-------------21-----------22-|
[|--------------------------------|--------------------------------|
[|--------------------------------|--------------------------------|
[|--------------------------------|--------------------------------|
[|--------------------------------|--------------------------------|




				   What's    that?
[ Gtrs.1 and 2
[|--------0---------1h0------------|--------0-------1h0------------|
[|------3-----3------------3-------|------3----3----------3---3----|
[|--3-------3---3-------3-------3--|--2----------2------2-------2--|
[|---------------------------0-----|-------------------------------|
[|---------------------------------|-------------------------------|
[|---------------------------------|-------------------------------|
[
[ Gtr.3
[|-----22-24--22------22-24--22----|-----22-24--22------22-24--22--|
[|--23-------------23-----------23-|--22-------------22------------|
[|---------------------------------|-------------------------------|
[|---------------------------------|-------------------------------|
[|---------------------------------|-------------------------------|
[|---------------------------------|-------------------------------|



[ Gtrs.1 and 2
[|-------0--------1-0-------0-0-|-------0---0------0--0--------|
[|-----3----3----------3--------|---3----------3----------3----|
[|--1---------1----------1------|-----1----------1----------1--|
[|------------------------------|------------------------------|
[|------------------------------|------------------------------|
[|------------------------------|------------------------------|
[
[ Gtr.3
[|-----22-24--22------22-24--22-|-----22-24--22------22-22--22-|
[|--21-------------21-----------|--21-------------21-----------|
[|------------------------------|------------------------------|
[|------------------------------|------------------------------|
[|------------------------------|------------------------------|
[|------------------------------|------------------------------|


[ Gtr.1
[|--------------------------------|---------------------------------|
[|--------------------------------|---------------------------------|
[|--------------------------------|---------------------------------|
[|--------------------------------|------------------------(5)------|
[|---------3--------------3-3-5-5-|---------3---------5-3---5-3---3-|
[|--5--5-5---5-5-4--4-4-4---------|--5--5-5---5-5-4-4-----5-----5---|
[
[ Gtr.3
[|--------------------------------|---------------------------------|
[|--22----------------------------|---------------------------------|
[|--------------------------------|---------------------------------|
[|--------------------------------|---------------------------------|
[|--------------------------------|---------------------------------|
[|--------------------------------|---------------------------------|


 Gtr.1                                                                  
|-------------------------------|---------------------------------|
|-------------------------------|---------------------------------|
|-------------------------------|-------------------------------0-|
|-------------------------------|-------------------------------0-|
|---------3--------------3--5-5-|---------3---------5-3---5-3-----|
|--5--5-5---5-5-4--4-4-4--------|--5--5-5---5-5-4-4-----5-----5---|


7/8 time
 Gtr.1                                                      
|---------------------------|---------------------------|
|---5----5-5-6--6--6-6------|--5--5-5---6--6--6-6-6-----|
|---5----5-5-5--5--5-5--7-7-|--5--5-5---5--5--5-5-5-7-7-|
|---5--5---5-5--6--6-6--8-8-|--5------5-5--6--6-6-6-8-8-|
|---3--3-----0--x--x-x--x-x-|--3------5----x----x-x-x-x-|
|---------------4--4-4--6-6-|--------------4----4-4-6-6-|



 Gtr.1                                                   Amb-
|----------------------------|-------------------------------|
|--5--5-5-5-6---6--6-6-6-----|--5--5-5-5-6-----5-4-x-3--3----|
|--5--5-5-5-5---5--5-5-5-7---|--5--5-5-5-5-----5-4-x-3--3----|
|--5--5---5-----6--6-6-6-8---|--5--5---5-------5-4-x-3--3----|
|--3--3---x---0-x--x-x-x-x---|--3------x-----0-3-2-x-1--1----|
|--3------------4--4-4-4-6-6-|-------------0--------------4--|


  -ition makes you look pretty ugly
 Gtr.1
[|--------------------------------|----------------------------------|
[|--------------------------------|----------------------------------|
[|--------------------------------|----------------------------------|
[|--------------------------------|----------------------------------|
[|---------3--------------3-3-5-5-|----------3---------------3-3-5-5-|
[|--5--5-5---5-5-4--4-4-4---------|--5---5-5---5-5-4---4-4-4---------|
[ 
[ Gtr.2 (w/Slap back delay, flanger
[        And slight distortion)      PM---------------------------+
[|--------------------------------|----------------------------------|
[|--------------------------------|----------------------------------|
[|--------------------------------|----------------------------------|
[|--------------------------------|----------------------------------|
[|--------------------------------|----------3---------------3-3-5-5-|
[|--------------------------------|--5-5-5-5---5-5-4-4-4-4-4---------|
 


  Kicking Squealing Gucci little piggy
[ Gtr.1
[|--------------------------------|----------------------------------|
[|--------------------------------|----------------------------------|
[|--------------------------------|----------------------------------|
[|--------------------------------|----------------------------------|
[|---------3--------------3-3-5-5-|----------3---------------3-3-5-5-|
[|--5--5-5---5-5-4--4-4-4---------|--5---5-5---5-5-4---4-4-4---------|
[
[Gtr.2 (w/Slap back delay, flanger
[        And slight distortion)      PM---------------------------+
[|--------------------------------|----------------------------------|
[|--------------------------------|----------------------------------|
[|--------------------------------|----------------------------------|
[|--------------------------------|----------------------------------|
[|--------------------------------|----------3---------------3-3-5-5-|
[|--------------------------------|--5-5-5-5---5-5-4-4-4-4-4---------|
[ Gtr.3
[|-24-----------------------------|----------------------------------|
[|-22-----------------------------|----------------------------------|
[|--------------------------------|----------------------------------|
[|--------------------------------|----------------------------------|
[|--------------------------------|----------------------------------|
[|--------------------------------|----------------------------------|


 Gtr.1                                                      
|---------------------------|---------------------------|
|---5----5-5-6--6--6-6------|--5--5-5---6--6--6-6-6-----|
|---5----5-5-5--5--5-5--7-7-|--5--5-5---5--5--5-5-5-7-7-|
|---5--5---5-5--6--6-6--8-8-|--5------5-5--6--6-6-6-8-8-|
|---3--3-----0--x--x-x--x-x-|--3------5----x----x-x-x-x-|
|---------------4--4-4--6-6-|--------------4----4-4-6-6-|


 Gtr.1
|----------------------------|-------------------------------|
|--5--5-5-5-6---6--6-6-6-----|--5--5-5-5-6-----5-4-x-3--3----|
|--5--5-5-5-5---5--5-5-5-7---|--5--5-5-5-5-----5-4-x-3--3----|
|--5--5---5-----6--6-6-6-8---|--5--5---5-------5-4-x-3--3----|
|--3--3---x---0-x--x-x-x-x---|--3------x-----0-3-2-x-1--1----|
|--3------------4--4-4-4-6-6-|-------------0--------------4--|

  
[ Tab from: http://www.guitartabs.cc/tabs/r/radiohead/paranoid_android_tab_ver_6.html ]
  You don't remember you don't remember Why don't you remember my name
[ Gtr.1
[|--------------------------------|----------------------------------|
[|--------------------------------|----------------------------------|
[|--------------------------------|----------------------------------|
[|--------------------------------|----------------------------------|
[|---------3--------------3-3-5-5-|----------3---------------3-3-5-5-|
[|--5--5-5---5-5-4--4-4-4---------|--5---5-5---5-5-4---4-4-4---------|
[
[ Gtr.2 (w/Distortion)
[|--------------------------------|----------------------------------|
[|--------------------------------|----------------------------------|
[|--------------------------------|----------------------------------|
[|----------------------------0---|----------------------------------|
[|--------------------------------|----------3---------------3-5-5-3-|
[|--15/---------------------------|--5---5-5---5---4---4-4-4---------|
[
[ Gtr.4 (w/Distortion)
[|--------------------------------|----------------------------------|
[|--------------------------------|----------------------------------|
[|--------------------------------|----------------------------------|
[|--------------------------------|----------------------------------|
[|--------------------------------|----------3---------------3---5-5-|
[|--5/-----------------------/7\5-|--5---5-5---5---4---4-4-4---------|
                                                                 

Off with his head man Off with his head man Why won't he remember my name I guess he 
[ Gtr.1
[|---------------------------------------|-----------------------------|
[|---------------------------------------|-----------------------------|
[|---------------------------------------|-----------------------------|
[|---------------------------------------|-----------------------------|
[|------------3------------------3-3-5-5-|-------3----------------3---5|
[|5----5---5-----5--5--4---4-4-4---------|5--5-5---5-5-4----4-4-4------|
[
[ Gtr.2
[   .25 .5   .75           .5  .5    NH              NH
[|---------------------------------------|-----------------------------|
[|---------------------------------0-----|-----------------------------|
[|-----------------------------------3.5-|-----------2.5----0-x--------|
[|---------------------------------------|------------------x-x-----x--|
[|55pb-5pb--5pb---7-7-8-9-9pb-9pb-------|-------3------------3-3-3-3-5|
[|---------------------------------------|5--x-x---5-----4----------4--|
[
[ Gtr.4         
[|---------------------------------------|-----------------------------|
[|---------------------------------------|-----------------------------|
[|---------------------------------------|-----------------------------|
[|---------------------------------------|-----------------------------|
[|5---------------------------(5)/////12\|-------3----------------3---5|
[|---------------------------------------|5--5-5---5-----4~-4-4-4------|
                                                                      

  does
[ Gtr.2
[|----------------------------|----------------------------|
[|----------------------------|----------------------------|
[|----------------------------|----------------------------|
[|----------------------------|----------------------------|
[|--3-------------------------|----------------------------|
[|----------------------------|----------------------------|
[ 
[ Gtr.4
[|----------------------------|----------------------------|
[|----------------------------|----------------------------|
[|------------9------5-7------|------------9------5-7--10/-|
[|------------8------6-8--10/-|------------8------6-8--10/-|
[|--10--10-10-----6--6-8--10/-|--10--10-10-----6--6-8---8/-|
[|--8---8--8------4-----------|--8---8--8------4-----------|


Guitar Solo
                              (Switch back to 4/4 time)
[ Gtr.2              (Tremolo pick up to 20th fret from the 4th)
[|----------------------------|-----------------4/5/7/10/14/18-|
[|----------------------------|--------------------------------|
[|----------------------------|--------------------------------|
[|----------------------------|--------------------------------|
[|----------------------------|--------------------------------|
[|----------------------------|--------------------------------|
[
[ Gtr.4
[|----------------------------|--------------------------------|      
[|----------------------------|--------------------------------|
[|------------9--------7------|-------------9------------------|
[|------------8--------810---|-------------8------------------|
[|--10--10-10-----6--6/8--8---|--10--10-10-10-----x-x--6--5-5/-|
[|--8---8---------4-----------|--8---8--8------5--8-7--6--5-5/-|



Tremolo pick 20th fret
[  Gtr.2                                    1.5
[|20-20-20-20-20-20-20-20-20-20-20-20-20-20-20b--|
[|-----------------------------------------------|
[|-----------------------------------------------|
[|-----------------------------------------------|
[|-----------------------------------------------|
[|-----------------------------------------------|
[
[ Gtr.4
[|-----------------------------------------------|
[|-----------------------------------------------|
[|-----------------------------------------------|
[|--------------------------------------3--------|
[|---------------3----------------------3----5---|
[|--5----5---5------5---4-----4-4-4------------|


[ Gtr.2
[|19h20-20-20-20-20-20-20-20-20-20-20-20-20-20--|
[|----------------------------------------------|
[|----------------------------------------------|
[|----------------------------------------------|
[|----------------------------------------------|
[|----------------------------------------------|
[
[ Gtr.4
[|----------------------------------------------|
[|----------------------------------------------|
[|----------------------------------------------|
[|----------------------------------------------|
[|------------------------(5)~~~~~~(5)\----5\---|
[|----------------------------------------------|


[ Gtr.2
[   1      1            1      1      1   
[|-----20-----20----20-----20-----20----|
[|--------22b----------22b-----------22b|
[|-22b------------------------22b-------|
[|--------------------------------------|
[|--------------------------------------|
[|--------------------------------------|
[
[ Gtr.4
[|--------------------------------------|
[|--------------------------------------|
[|--------------------------------------|
[|--------------------------------------|
[|-----------3------------------3----5--|
[|--5--5--5---5--4-----4-4-4-----------|


[ Gtr.2
[        1 
[|---20-------19-19-19-20-19-20-19-19/-----|
[|----------0-------------------------0-0--|
[|------22b---------------------------0-0--|
[|-----------------------------------------|
[|-----------------------------------------|
[|-----------------------------------------|
[
[                     This is one single 
[  Gtr.4              slide  
[|-----------------------------------------|
[|-----------------------------------------|
[|-----------------------------------------|
[|-----------------------------------------|
[|(5)~~~~~~~-5-5------5/14\5/14\5///13\10--|
[|-----------------------------------------|


Switch back to 7/8 time

[ Gtr.2
[      .75    1              1              .75    1
[|------------------------------------|--------------------------------|
[|8h10-10pbr-10pbr-8h0-9h11-11pbr-9h0-|8h10-10pbr-10pbr-8h0-7h9-5h7-3h0|
[|------------------------------------|--------------------------------|
[|------------------------------------|--------------------------------|
[|------------------------------------|--------------------------------|
[|------------------------------------|--------------------------------|
[
[ Gtr.4
[|------------------------------------|--------------------------------|
[|------------------------------------|--------------------------------|
[|-------------9---------5---7--------|-------------9---------5--7--10/|
[|-------------8---------6---8----10/-|-------------8---------6--8--10/|
[|10----10-10-------6----6---8----10/-|10----10-10--------6---6--8---8/|
[|8-----8--8--------4-----------------|8-----8--8---------4------------|



                                   
[ Gtr.2                                (Switch back to 4/4 time)  
[      .75    1              1               1     1
[|------------------------------------|--------------------------------|
[|8h10-10pbr-10pbr-8h0-9h11-11pbr-9h0-|8h10-10pbr-10pbr-8h0-10-9-8----x|
[|------------------------------------|----------------------------11-x|
[|------------------------------------|-------------------------------x|
[|------------------------------------|-------------------------------x|
[|------------------------------------|--------------------------------|
[
[ Gtr.4								  PM+
[|------------------------------------|--------------------------------|
[|------------------------------------|------------------------------0-|
[|-------------9\------------7--------|-------------9-9----------------|
[|-------------8\------------8----10/-|-------------8-8----------------|
[|10----10-10-10\---6---/8---8-----8/-|10----10-10-1010----------6-5---|
[|8-----8--8--------4-----------------|8-----8--8-------0-0-8-7--6-5--0|


[ Gtr.2
[|--------------------------------|
[|--------------------------------|
[|--------------------------------|
[|--------------------------------|
[|---12~~~~~~~~~~~~~~~~-----------|
[|-x------------------------------|
[
[ Gtr.4    w/slight feedback    
[|--------------------------------|
[|--1-----------------------------|
[|--2-----------------------------|
[|--3-----------------------------|
[|--3-----------------------------|
[|--1-----------------------------|




Interlude

BPM: 63

 
    Ahhhhhhhhhhhhhhhhh                             Ahhhhhhh
    
 Gtr.1 (Acoustic)
|---------3--3-3-------3----3-|--------3------------0----0-|
|---------4--4-4-------3--3-3-|-----3--3------------2----2-|
|---------5--5-5-------0--0---|-----0--0----0-------2--2---|
|---------5--5-5-------0--0---|-----0--0--0------2--2--2---|
|---3--3--3--3-3-2--2--2------|--1-----1------0--0---------|
|-----------------------------|----------------------------|

 Ahhhhhhhhhhhhhhhhhhhhhh        Ahhhhhhhhhhhhhhhhhhhhhhh
 Gtr.1                                                          
|--------1------------0----0-|--------1----1------1-1-1----|
|--3-----3------------2--2-3-|--3-----3----3------3-3-3-x--|
|--2--2--2--2-0-------2--2-2-|--2--2--2--2-2------2-2-2----|
|--0--0--0--0-0----2--2--2---|--0--0--0--------------------|
|---------------0--0--0------|---------------3--3----------|
|----------------------------|-----------------------------|

  Ahhhhhhhhhhhhhhhhhhhh          Ahhhhhhhhhhhhhhhhhhhhhhhh
 Gtr.1                                                           
|--------1--------------1-----|--------3--------------------|
|--------3------------1-1---0-|--------3------------1-1-1---|
|--------3---x--------2-2-x---|--------3---3--------2-2-2---|
|--------3--------3-3-3---x---|--------5---5--------3-3-3---|
|--1--1--------0--0-0---------|--5--5--5--------3-3-3-3-3-0-|
|-----------------------------|--3--3--3-----1--1-1---------|



 Gtr.1
|-------------------------0-0-|-------0-0--0-0--------0-------|
|--------0--0-0-0--0-0-0--0-0-|-----2-2-2--2-2-3--3-3-2--x----|
|--------1--1-1-2--2-2-1--1-1-|-----2-2-2--2-2-2--2-2-2--x-0--|
|--------2--2-2-2--2-2-2--2-2-|-----2-2-2--2-2-2--2-2-2--x-0--|
|--------2--2-2-2--2-2-2--2-2-|--0--0---0--0-0-0--0-0-0----0--|
|--0--0--0--0-0-0--0-0-0--0-0-|-------------------------------|

    Rain         down                  Rain   down  come on
 Gtr.1
|---------3--3-3-------3----3-|--------3------------0----0-|
|---------4--4-4-------3--3-3-|-----3--3------------2----2-|
|---------5--5-5-------0--0---|-----0--0----0-------2--2---|
|---------5--5-5-------0--0---|-----0--0--0------2--2--2---|
|---3--3--3--3-3-2--2--2------|--1-----1------0--0---------|
|-----------------------------|----------------------------|

   Rain         down     on        me
 Gtr.1
|--------1------------0----0-|--------1----1------1-1-1----|
|--3-----3------------2--2-3-|--3-----3----3------3-3-3-x--|
|--2--2--2--2-0-------2--2-2-|--2--2--2--2-2------2-2-2----|
|--0--0--0--0-0----2--2--2---|--0--0--0--------------------|
|---------------0--0--0------|---------------3--3----------|
|----------------------------|-----------------------------|


        From a great   height          from a great
 Gtr.1
|--------1--------------1-----|--------3--------------------|
|--------3------------1-1---0-|--------3------------1-1-1---|
|--------3---x--------2-2-x---|--------3---3--------2-2-2---|
|--------3--------3-3-3---x---|--------5---5--------3-3-3---|
|--1--1--------0--0-0---------|--5--5--5--------3-3-3-3-3-0-|
|-----------------------------|--3--3--3-----1--1-1---------|


   height                        height
 Gtr.1
|-------------------------0-0-|-------0-0--0-0--------0-------|
|--------0--0-0-0--0-0-0--0-0-|-----2-2-2--2-2-3--3-3-2--x----|
|--------1--1-1-2--2-2-1--1-1-|-----2-2-2--2-2-2--2-2-2--x-0--|
|--------2--2-2-2--2-2-2--2-2-|-----2-2-2--2-2-2--2-2-2--x-0--|
|--------2--2-2-2--2-2-2--2-2-|--0--0---0--0-0-0--0-0-0----0--|
|--0--0--0--0-0-0--0-0-0--0-0-|-------------------------------|



Rain         down                  Rain   down  come on
 Gtr.1
|---------3--3-3-------3----3-|--------3------------0----0-|
|---------4--4-4-------3--3-3-|-----3--3------------2----2-|
|---------5--5-5-------0--0---|-----0--0----0-------2--2---|
|---------5--5-5-------0--0---|-----0--0--0------2--2--2---|
|---3--3--3--3-3-2--2--2------|--1-----1------0--0---------|
|-----------------------------|----------------------------|

   Rain         down     on        me    
 Gtr.1                                                     
|--------1------------0----0-|--------1----1------1-1-1----|
|--3-----3------------2--2-3-|--3-----3----3------3-3-3-x--|
|--2--2--2--2-0-------2--2-2-|--2--2--2--2-2------2-2-2----|
|--0--0--0--0-0----2--2--2---|--0--0--0--------------------|
|---------------0--0--0------|---------------3--3----------|
|----------------------------|-----------------------------|
        

        From a great   height          from a great
 Gtr.1                                                      
|--------1--------------1-----|--------3--------------------|
|--------3------------1-1---0-|--------3------------1-1-1---|
|--------3---x--------2-2-x---|--------3---3--------2-2-2---|
|--------3--------3-3-3---x---|--------5---5--------3-3-3---|
|--1--1--------0--0-0---------|--5--5--5--------3-3-3-3-3-0-|
|-----------------------------|--3--3--3-----1--1-1---------|


   height                        height  
 Gtr.1                                                            
|-------------------------0-0-|-------0-0--0-0--------0-------|
|--------0--0-0-0--0-0-0--0-0-|-----2-2-2--2-2-3--3-3-2--x----|
|--------1--1-1-2--2-2-1--1-1-|-----2-2-2--2-2-2--2-2-2--x-0--|
|--------2--2-2-2--2-2-2--2-2-|-----2-2-2--2-2-2--2-2-2--x-0--|
|--------2--2-2-2--2-2-2--2-2-|--0--0---0--0-0-0--0-0-0----0--|
|--0--0--0--0-0-0--0-0-0--0-0-|-------------------------------|


   That's it sir    you're leaving  the crackle  of pigskin 
 Gtr.1
|---------3--3-3-------3----3-|--------3------------0----0-|
|---------4--4-4-------3--3-3-|-----3--3------------2----2-|
|---------5--5-5-------0--0---|-----0--0----0-------2--2---|
|---------5--5-5-------0--0---|-----0--0--0------2--2--2---|
|---3--3--3--3-3-2--2--2------|--1-----1------0--0---------|
|-----------------------------|----------------------------|


    The dust and the screaming   The yuppies networking ah
 Gtr.1                                                           
|--------1------------0----0-|--------1----1------1-1-1----|
|--3-----3------------2--2-3-|--3-----3----3------3-3-3-x--|
|--2--2--2--2-0-------2--2-2-|--2--2--2--2-2------2-2-2----|
|--0--0--0--0-0----2--2--2---|--0--0--0--------------------|
|---------------0--0--0------|---------------3--3----------|
|----------------------------|-----------------------------|


                                                           
      The panic    The vomit         The panic   The vomit
 Gtr.1      
|--------1--------------1-----|--------3--------------------|
|--------3------------1-1---0-|--------3------------1-1-1---|
|--------3---x--------2-2-x---|--------3---3--------2-2-2---|
|--------3--------3-3-3---x---|--------5---5--------3-3-3---|
|--1--1--------0--0-0---------|--5--5--5--------3-3-3-3-3-0-|
|-----------------------------|--3--3--3-----1--1-1---------|


     God loves his children         God loves His children
 Gtr.1                                                             
|-------------------------0-0-|-----------------------------|
|--------0--0-0-0--0-0-0--0-0-|-------0---0-0-0--0-0-0--0-0-|
|--------1--1-1-2--2-2-1--1-1-|-------1---1-1-2--2-2-1--1-1-|
|--------2--2-2-2--2-2-2--2-2-|-------2---2-2-2--2-2-2--2-2-|
|--------2--2-2-2--2-2-2--2-2-|-------2---2-2-2--2-2-2--2-2-|
|--0--0--0--0-0-0--0-0-0--0-0-|--0--0-0---0-0-0--0-0-0--0-0-|


 

Speed up: 84 Bpm

  Yeah
[ Gtr.1 (Acoustic)
[|--------------------------------|--------------------------------|
[|--------------------------------|--------------------------------|
[|--------------------------------|--------------------------------|
[|--------------------------------|--------------------------------|
[|---------3--------------3-3-5-5-|--------------------------------|
[|--5--5-5---5-5-4--4-4-4---------|--------------------------------|
[
[
[ Gtr.2 (w/distortion and envelope filter effects)      NH
[|---------------------------------|-------------------------------|
[|---------------------------------|---------------------5---------|
[|-----------------------------5---|---------5----5--------5-7-7-5-|
[|---------------------------------|--7--7-7-9-7--6--6-6---x-x-x-5-|
[|---------------------------------|-----------------x-------------|
[|---------------------------------|-------------------------------|
[
[ Gtr.4				Let the last note ring into the 
[				the next measure (The 5).
[|---------------------------------|-------------------------------|
[|---------------------------------|-------------------------------|
[|---------------------------------|-------------------------------|
[|---------------------------------|-------------------------------|
[|---------------------------------|---------3-------------3---5---|
[|---------------------------/10\--|--5--5-5---5--4--4---4---------|



 Gtr.2
       . 25 .5       1   1   1  1.5 1.75
[|--------------------------------------------------|
[|---------------------------------------7---8/3-0--|
[|--7--7-7b-7pb---7-7pb-7pb-7pb-7pb-7pb----------0--|
[|-----------------------------------------x--------|
[|--------------------------------------------------|
[|--------------------------------------------------|
[
[ Bend the 5 from the last measure in the middle of this one           
[ Gtr.4	                    .75
[|--------------------------------------------------|
[|--------------------------------------------------|
[|--------------------------------------------------|
[|--------------------------------------------------|
[|-(5)---------------------(5)bbbbbbbb---------x-0--|
||--------------------------------------------------|


[ Gtr.2                      NH
[|---------------------------------|
[|---------0-------------0-0-----0-|
[|---------5---5-5---5-----x-x---x-|
[|--7--7-7---7-7-6-6-6-6-----5-x---|
[|-----x---------------------x-x---|
[|-----------------------------x---|
[
[ Gtr. 4
[|---------------------------------|
[|---------------------------------|
[|---------------------------------|
[|---------------------------------|
[|---------3---------------3---5/10|
[|--5--5-5---5---4---4---4---------|



Outro Solo 
 
Switch back to 7/8 time

[ Gtr.2                           NH	          NH
[|--10------------------------------|--10------------------------------|
[|-----9--------10-10-------------9-|---------------10-----------------|
[|-------8~----------------10-------|-----8~------7-----------10-----0-|
[|------------9-------8--9----------|-----------x------8--------(10)-x-|
[|----------------------------9-9---|-----------------------x----8-----|
[|----------------------------------|----------------------------------|
[
[ Gtr.4
[|----------------------------------|----------------------------------|
[|----------------------------------|-------------------------6----10--|
[|--------------------5--5-7---10---|-------------9/---5------7----10--|
[|-------------8------6--6-8---10---|-------------8/---6----8-8----10--|
[|--10---10-10-10-10/-6--6-8---8----|--10---10-10-10/--6----8-8----8---|
[|--8----8--8--8------4--4----------|-------8--8--8/---4---------------|



[ Gtr.1
[       1               .5
[|--10-----------------------------------|
[|-------------------10--------10--------|
[|-----8br~----------10--------10--------|
[|----------------------8br--------------|
[|--------------------------------8------|
[|---------------------------------------|
[
[ Gtr.4
[|---------------------------------------|
[|---------------8--8/---------6-6-10----|
[|--9------------9--9/-------5-7-7-10----|
[|--8------------8--8/-------6-8-8-10-10-|
[|--10-----10-10-10-10/-6------8-8-------|
[|--8------8--8--8--8/--4----------------|


[ Gtr.2
[       1	     1   1   1    1          1    1   1     1   1  1
[|--10--------0-0--------------------|--------------------------------|
[|--10------------13-12--11--9----13-|------16----15--13----6---13-13-|
[|-----8br~----------14b-13b-11b--15b|----0-18b---17b-15b-0-8b--15b15b|
[|-----------------------------------|----0-----0---------0-----------|
[|------------------------------0----|----------0---------------------|
[|-----------------------------------|--------------------------------|
[
[ Gtr.4	                            (let last note ring into next 
[                                         measure)
[|-----------------------------------|--------------------------------|
[|------------8----------------------|--------------------------------|
[|------------9----------------------|--------------------------------|
[|--8---------8----------------------|----------x---------------------|
[|--10--10-10-10------------6------0-|----------3--------------3---5--|
[|------8--8--8----8---7----6--5/8---|--5-5--5---5--4--4---4---------|


[ Gtr.2
[(w/pitch shift effects until end of 
[  measure)         	 (turn off here)	     	
[    1      .5   2      2      1.5        1     1    1    1     1
[|---------------------------------0---|-------------------------------|
[|---------------------------------0---|--13----16---15--13------------|
[|--15b----15pb15pbr15-15pb-15-15pb--0-|--15b---18b--17b-15b\6--6b-----|
[|-----------------------------------0-|------x------------------------|
[|-------------------------------------|---------------------------x-0-|
[|-------------------------------------|---------------------------x---|
[
[ Gtr.4
[(Bend note from last measure gradually
[ in rhythm shown by ghost notes)
[      .5          2         2.5
[|-------------------------------------|-------------------------------|
[|-------------------------------------|-------------------------------|
[|-------------------------------------|-------------------------------|
[|-------------------------------------|-------------------------------|
[|(5)-(5)b--------(5)b-------(5)b-0----|-------------3-------------3--5|
[|-----------------------------------5-|---5-5-----5---5--4---4--4-----|


[ Gtr.2
[    1  1  1  1          1     1      1
[|-------------------------------------------0---|
[|--13--13-13-15--15-15--------18-----19---------|
[|--15b-15b15b17b-------19b-19-20b-20-21b--------|
[|-----------------------------------------------|
[|---------------------------------------------0-|
[|-----------------------------------------------|
[
[ Gtr.4
[|-----------------------------------------------|
[|---------------------------------16-16---16----|
[|------------------------------17---------------|
[|-----------------------------------------------|
[|----------------------(5)\12----------------0--|
[|--------------------------------------------12-|


[ Gtr.2
[                             1 
[|------------------------------------|
[|--10----8-------------10------------|
[|------0--------x---------0-10brh8---|
[|-----------------8/10---------------|
[|------------------------------------|
[|------------------------------------|
[
[ Gtr.4
[|------------------------------------|
[|------------------------------------|
[|--9----------------5-----5-7---10---|
[|--9---------8------x-----x-x-x-x----|
[|--10--10-10-10-----6-----6-8---8----|
[|--8---8--8--8------4-----4-6---8----|



[ Gtr.2
[                             1                               1
[|---------------------10---10brhhh8-|-------------------------------|
[|8h10hh8-8-----x--------------------|--10----8--------10------------|
[|----------------8/10----0----------|------0-------------0--10brh8--|
[|-----------------------------------|------------8/10---------------|
[|-----------------------------------|-------------------------------|
[|-----------------------------------|-------------------------------|
[
[ Gtr.4
[|-----------------------------------|-------------------------------|
[|-----------------------------------|--------------------------10---|
[|--9----------------5----5-7---10---|------9--9-------5--5-7---10---|
[|--9----8--8--8-----x----x-x---10---|------8--8--8----x--x-x-x-10---|
[|--10---10-10-10----6----6-8---8----|--10--10-10-10---6--6-8---8--8-|
[|--8----8--8--8-----4----4-6---8--8-|--8---8--8--8----4--4-6---8-8-|



[ Gtr.2
[|------------------------9-----------|
[|--10h-8-8-------------0-x-----------|
[|--------------------6---9-8--7--5---|
[|------------------------------------|
[|------------------------------------|
[|------------------------------------|
[
[ Gtr.4
[|------------------------------------|
[|------------------------------------|
[|------9--9--9--9--------------------|
[|------8--8--8--8--------------------|
[|--10--10-10-10-10-------------------|
[|--10--8--8--8--8--------8-7--6--4---|




Update:

Here's the Correct chords right before the "Ambition makes you look pretty ugly" part.
The 6th string is fretted with the thumb to allow for the Hendrix-like chord
embellishments that Thom adds with his pinky. 

7/8 time
 Gtr.1                                                      
|-----------------------------|-----------------------------|
|---8-----8--8-x--6--6-6--6-6-|---8-----8--8-x--6--6-6--6-6-|
|---9-----9-10-x--5--5-5--7-7-|---9-----9-10-x--5--5-5--7-7-|
|--10-10-10-10-x--6--6-6--8-8-|--10-10-10-10-x--6--6-6--8-8-|
|---x--x-----x-x--x--x-x--x-x-|---x--x-----x-x--x--x-x--x-x-|
|---8--8-----8-x--4--4-4--6-6-|---8--8-----8-x--4--4-4--6-6-|




 Gtr.1                          4/4 time                 Amb-
|-----------------------------|---------------------------------|
|---8-----8--8-x--6--6-6--6-6-|---8-----8--8-x-x--8-7-6--4-4-4-|
|---9-----9-10-x--5--5-5--7-7-|---9-----9-10-x-x-9-8--7--5-5-5-|
|--10-10-10-10-x--6--6-6--8-8-|--10-10-10-10-x-x-10-9--8--6-6-6-|
|---x--x-----x-x--x--x-x--x-x-|---x--x-----x-x-x--x-x--x--x-x-x-|
|---8--8-----8-x--4--4-4--6-6-|---8--8-----8-x-x--8-7--6--4-4-4-|

Update, April 12, 2004:
During the live in Glastonbury show Ed plays the high pitched melody in the Chorus
("what's that") with a pitch shifter (I believe it is set one octave higher):

|-------12-------------12-----------|-------12-------------12-------|
|----15---15--------15----15--------|----15----15-------15----15----|
|-15-------------15-----------15----|-14-------------14----------14-|
|-----------------------------------|-------------------------------|
|-----------------------------------|-------------------------------|
|-----------------------------------|-------------------------------|

|-------12-------------12-----------|-------12-------------12-------|
|----15---15--------15----15--------|----15----15-------15----15----|
|-13-------------13-----------------|-13-------------13-------------|
|-----------------------------------|-------------------------------|
|-----------------------------------|-------------------------------|
|-----------------------------------|-------------------------------|

Keep in mind, however, that this bit might have been played differently on the record.
This correction is based on the Glastonbury concert footage.
Comments