Radiohead - Paranoid Android Easy Version Chords & Tabs

 

Paranoid Android Easy Version Chords & Tabs

Radiohead Chords & Tabs

Version: 1 Type: Tab 0 ratings
1 star 2 stars 3 stars 4 stars 5 stars
comments

Paranoid Android Easy Version Tab

Radiohead
    paranoid android
-----------------------

"intro/verse riff"
   (de tussennoten kan je improviseren, tis een voorbeeld)
E|--------------------------------------------------
B|-------8-----------8----------8-----------8-----8-
G|---------8---8-------8---8---8--8---8-------------
D|----------0-----------0-----------0-----0-----0---
A|---------------------------6----------0-----------
E|-8-8-----------6-6--------------------------6-----


E|-----------------------------------------
B|-----3-----------3-----3-----3-3---3-3-3-
G|-------3---3---3-----3-------3-------0-0-
D|---0-----0-----------------2-----2---0-0-
A|-------------0-----1-----0---------------
E|-3---------------------------------------
[ Tab from: http://www.guitartabs.cc/tabs/r/radiohead/paranoid_android_easy_version_tab.html ]
"pre-chorus":
E|----------------------------------------------- ...
B|-----3----------3-----------3-----------3------ ...
G|-------3---3--3---3---3---2---2---2-------1---1 ... 
D|---0-----0----------0-----------0-----2-----2-- ...
A|----------------------------------------------- ...
E|-3-----------3----------1-----------0---------- ...

"chorus"
E|---------------------------------------------------
B|---------------------------------------------------
G|---------------------------------------------------
D|---------------------------------------------------
A|-------3-------------3-5---------3-----5-3-0-5-3-0-
E|-5-5-5---5-5-5-4-4-4-------5-5-5---5-4-------------

E|----------------------------|--------
B|----------------------------|--------
G|-9--9--9--9--9--9---5-5-5-5-|-9--8-7-
D|-10-10-10-10-10-10--6-6-6-6-|-10-9-8-
A|-10-10-10-10-10-10--6-6-6-6-|-10-9-8-
E|-8--8--8--8--8--8---4-4-4-4-|-8--7-6-

bridge:
-------
 (chords)
E|----3-----0--1--0--1--1-----0--3--0--0--
B|----3-----2--3--2--3--3-----2--3--1--0--
G|-5--0--3--2--2--2--2--2--3--2--0--2--1--
D|-5--0--3--2--0--2--0--0--3--2--0--3--2--
A|-3--0--1--0--0--0--0--3--1--0--0--3--2--
E|----3-----0--0--0--0--0-----0--3-----0--
             these are just the chords for the bridge, listen to the song...

tabbed by: BentonX
Comments